Tidslinje: Historien om Jimmy Page

Tidslinje: Historien om Jimmy Page


Jimmy Page er mest kjent som gitaristen i Led Zeppelin og regnes som en av tidenes beste gitarister. Vi har laget en tidslinje som viser Jimmy Page sitt liv, og ikke overraskende er det på 1970-tallet de fleste høydepunktene forekommer.

Publisert: 01.11.18. Skrevet av Peder Åmland. Kategori: Internasjonale gitarister.

 
  • Jimmy Patrick Page blir født

    Stjernegitaristen ble født i England, i en forstad til London som heter Heston. Akkurat som vi nordmenn ikke blir født med ski på beina, ble heller ikke Jimmy Page født med en gitar i fanget.

  • Begynner å spille gitar

    Det ryktes at det var i 1956 - året Jimmy Page fylte 12 år - at han fikk sin første gitar. Han tok noen få gitartimer, men var for det meste selvlært.

    • Jimmy Page

    • Jimmy Page, mellom 10 og 13 år gammel.
  • Spiller på BBC

    Allerede året etter han fikk sin første gitar var Page å se på TV, i et talentshow på BBC. Han opptrådte med et band som bestod av fire gutter og de spilte to sanger. Da han ble spurt om hva han ville gjøre etter skolen, svarte han: "Jeg vil studere biologi og finne en kur mot kreft, hvis det ikke er oppdaget til da".

  • Studiomusiker

    Jimmy Page sitt talent på gitar gikk tidlig ut i full blomst og i løpet av de første årene på 1960-tallet hadde han etablert seg om en av de mest ettertraktede studiomusikerne i London. Han spilte blant annet på album til The Kinks og The Who.

    • Ung Jimmy Page

    • Ung og lovende Jimmy Page, rundt 1960.
  • The Yardbirds

    Det engelske rockebandet The Yardbirds ble etablert i 1963. Tre av verdens mest kjente gitarister startet sine karrierer i bandet: Eric Clapton, Jeff Beck og Jimmy Page. Clapton og Page spilte aldri sammen i The Yardbirds, men Beck og Page spilte en periode sammen.

    Dette bandet var perfekt for Jimmy Page for å utvikle sin gitarstil, siden han fikk prøve seg på mange forskjellige stiler og det var mye improvisering på konserter.

  • Led Zeppelin blir etablert

    The Yardbirds begynte i 1968 å gå i oppløsning og Jimmy Page ønsket å starte et nytt band. Han hadde utviklet sin gitarstil og ville at det nye bandet skulle spille en blanding av blues, hard rock og akustisk musikk. Etter hvert fikk han med seg vokalist Robert Plant, trommeslager John Bonham og bassist John Paul Jones.

    Led Zeppelin var blitt dannet og Jimmy Page sitt eminente gitarspill bidro sterkt til bandets raske suksess.

    • Led Zeppelin i 1968

    • Led Zeppelin året de startet opp, 1968.
  • Whole Lotta Love

    På Led Zeppelins andre album, "Led Zeppelin II", finner vi låten "Whole Lotta Love" som er blant bandets mest populære låter. Det var ombord i husbåten sin på elven Thames at Jimmy Page kom opp med det rocka gitarriffet til låta.

    WHOLE LOTTA LOVE - INTRO
    
    e|------------|----------------------------------|
    H|------------|----------------------------------|
    G|------------|*---------------------------------|
    D|------------|*-9-------9-------9-------9-------|
    A|----5----5--|--7-------7-------7-------7-------|
    E|-/7----7----|----0-0-0---0-0-0---0-0-0---0-0-0-|
                
                
    e|-------------------------------|
    H|-------------------------------|
    G|------------------------------*|
    D|-9-------9-------9-9----------*|
    A|-7-------7-------7-7---5----5--|
    E|---0-0-0---0-0-0-----7----7----|
    				
    Loading the player...

    Se Whole Lotta Love videoleksjon (medlem)

  • Immigrant Song

    Åpningsporet på Led Zeppelins tredje album er "Immigrant Song". Jimmy Page leverte igjen da det gjaldt å produsere energisk rockeriff.

    IMMIGRANT SONG - INTRO
    
    e||-----------------------------------||
    H||-----------------------------------||
    G||*---------------------------------*||
    D||*---------4---------------4-------*||
    A||-----------------------------------||
    E||--2---2-2---2---0-2---2-2---2---0--||
    				

     

    IMMIGRANT SONG

    [Led Zeppelin]

    Medlem

     

  • Gibson EDS-1275 double neck

    Gibson sin legendariske to-halsede EDS-1275 er en spesiell gitar og mange forbinder den med Jimmy Page. Han brukte gitaren live på Stairway to Heaven der han spilte på den nederste 6-strengs gitaren på introen og på første vers. Deretter byttet han over til den øverste 12-strengs gitaren. Litt uti sangen svitsjet han så tilbake til 6-strengsen på den utvidede soloen, før han tilslutt avsluttet på 12-strengsen.

    • Gibson EDS-1275 double neck

    • Gibson EDS-1275 double neck.
  • Stairway to Heaven

    Denne klassikeren er faktisk sangen som ble mest spilt på amerikansk rock radio gjennom 1970-tallet. Albumet den er hentet fra "Led Zeppelin IV" er blant verdens mestselgende album gjennom tidene. Fingerspillet på introen og versene er kjent for de fleste og bør være fristende for enhver gitarist å lære seg.

    STAIRWAY TO HEAVEN - INTRO
    
    E|-------5-7-----7-|-8-----8-2-----2-|
    H|-----5-----5-----|---5-------3-----|
    G|---5---------5---|-----5-------2---|
    D|-7-------6-------|-5-------4-------|
    A|-----------------|-----------------|
    E|-----------------|-----------------|
    
    
    E|-0---------0-----|-----------------|
    H|---1---1-----1---|-0-1-1-----------|
    G|-----2---------2-|-0-2-2-----------|
    D|-3---------------|-----------------|
    A|-----------------|-2-0-0---0--/8-7-|
    E|-----------------|-----------------|
     
     
    E|---------7-----7-|-8-----8-2-----2-|
    H|-------5---5-----|---5-------3-----|
    G|-----5-------5---|-----5-------2---|
    D|---7-----6-------|-5-------4-------|
    A|-0---------------|-----------------|
    E|-----------------|-----------------|
    
    
    E|-0---------0-----|-----------------|
    H|---1---1-----1---|-0-1-1-----------|
    G|-----2---------2-|-0-2-2-----------|
    D|-3---------------|-----------------|
    A|-----------------|-2-0-0-------0-2-|
    E|-----------------|-----------------|
    				
    Loading the player...

    Se Stairway to heaven - intro videoleksjon (medlem)

  • Led Zeppelin blir oppløst

    Etter trommeslager John Bonhams dødsfall i 1980 ble Led Zeppelin oppløst. De tre gjenværende medlemmene kom med følgende pressemelding: "We wish it to be known that the loss of our dear friend, and the deep sense of undivided harmony felt by ourselves and our manager, have led us to decide that we could not continue as we were". Signert kun med "Led Zeppelin".

  • XYZ-prosjektet

    I 1981 spilte Page inn noen demoer sammen med Chris Squire og Alan White fra Yes, i et prosjekt som ble kalt XYZ (ex Yes og Zeppelin). Page ville ha med Robert Plant, men etter at vokalisten takket nei etter en jam session, ble prosjektet lagt dødt.

  • The Firm

    Jimmy Page startet i 1984 et nytt band kalt The Firm. Med i bandet var blant annet vokalist Paul Rodgers, kjent fra band som Free og Bad Company. 2 album ble utgitt, uten den helt store suksessen.

  • Soloalbum

    Jimmy Page sitt første - og foreløpig eneste - soloalbum ble utgitt i 1988 og fikk middels mottakelse.

    • Outrider

    • Outrider albumcover.
  • Gjenforenes med Robert Plant

    I 1994 kom Page og Plant sammen igjen for en opptreden på MTV sin "unplugged"-serie. Den 90 minutter lange spesialen fikk en av de høyeste ratinger i MTVs historie.

  • Studioalbum med Robert Plant

    Samarbeidet med Plant fortsatte i 1998 da gutta gikk i studio for å spille inn deres eneste studioalbum "Walking into Clarksdale".

    • Walking into Clarksdale

    • Walking into Clarksdale album cover.
  • Utnevnelse

    Jimmy Page ble utnevnt til offiser av Order of the British Empire i 2005.

  • Beste gitarsolo

    I 2007 ble Jimmy Page sin gitarsolo i «Stairway to Heaven» stemt frem som den beste noensinne av leserne av bladet Guitar World.

  • O2 Arena

    10. desember i 2007 spilte de gjenværende medlemmene av Led Zeppelin, pluss John Bonham's sønn Jason Bonham, på en veldedighetskonsert på O2 Arena i London. Ifølge Guiness rekordbok 2009 satte Led Zeppelin ny verdensrekord for "største etterspørsel etter billetter til en musikkonsert", da 20 millioner billettforespørsler ble registrert online.

  • OL i Beijing

    Jimmy Page var en del av Londons bidrag under avslutningsseremonien til OL i Beijing. Han fremførte et parti av Led Zeppelin-sangen «Whole Lotta Love» sammen med Leona Lewis.

  • Jimmy Page nå

    De siste årene har Jimmy Page holdt en lav profil, men har vært å se i noen radio- og tvopptredener. Page har utvilsomt hatt en fantastisk karriere og har influert mange av nåtidens store gitarister.

    • Jimmy Page

    • Jimmy Page i 2013.



 

 

Flere artikler:




Nyeste artikler:





Videoleksjoner