Artikler


Hva heter tonene på gitaren?

Hva heter tonene på gitaren?

Publisert: 18.10.12 | Kategori: Gitarist

Om du ikke allerede vet hva tonene heter på gitaren. Det er lettere enn du kanskje tror!


På piano er det ganske så greit å lære seg navn på tonene. Der går alt logisk oppover, og jo lenger til høyre man kommer jo lysere blir tonene. På gitaren er det ikke så enkelt. Vi gitarister kan jo spille akkurat samme tone flere steder på gitaren. Fordelen med dette er at vi lett kan spille store sprang(fra mørk til lys tone, eller omvendt), men ulempen er at man lett kan miste oversikten.

Vi begynner med en C-dur skala, lærer man seg den er det meste av jobben gjort:

e|------------------------------------|
H|---------------------------0---1----|
G|-------------------0---2------------|
D|-------0---2---3--------------------|
A|---3--------------------------------|
E|------------------------------------|
     C   D   E   F   G   A   H   C

Denne skalaen lyder nok kjent, du vil kanskje også gjenkjenne den som Jahn Teigens låt Do-Re-Mi, som var Norges bidrag til Eurovision Song Contest i 1983.

Legg merke til at C-dur skalaens toner ligner svært mye på alfabetet, B er bare bytta ut med H. Vi kan også spille C-dur skalaen på én streng. Da ser det for eksempel slik ut:

e|----------------------------------------|
H|----------------------------------------|
G|----------------------------------------|
D|----------------------------------------|
A|----3---5---7---8---10---12---14---15---|
E|----------------------------------------|
      C   D   E   F   G    A    H    C 	        

Her er det to bånd fra C til D og fra D til E, ett bånd fra E til F, to bånd fra F til G, og fra G til A, og fra A til H, og til slutt ett bånd fra H til C. I musikkteorien sier vi at C-dur skala har to heltonetrinn, så et halvtonetrinn, så tre heltonetrinn og et halvtonetrinn.

Det fine med dette, og her kommer hovedpoenget, er at det gjelder overalt på gitaren! Så hvis du spiller tonen E et sted på gitaren, er det alltid en F ett bånd over.

En oppsummering:

  • Det er oftest to bånd(en heltone) til neste tone i C-dur skalaen.
  • Unntakene er fra E til F og fra H til C. Da er det bare ett bånd(en halvtone).

For å gjøre det hele komplett er det to ting til man bør vite om: # og b.

#(kryss) gjør tonen ett bånd lysere(ett bånd opp). Eksempel: C# (uttales: 'ciss') spilles ett bånd over C, for eksempel 4.bånd på 5.streng.

e|---------------------|
H|---------------------|
G|---------------------|
D|---------------------|
A|-------3------4------|
E|---------------------|
         C      C#                 

For b blir det motsatt. Da spiller man ett bånd mørkere:

e|-----------------------|
H|-----------------------|
G|-------2--------1------|
D|-----------------------|
A|-----------------------|
E|-----------------------|
         A        Ab                  

Hva kan man så bruke alt dette til? En viktig ting er i forhold til barreakkorder. Disse akkordene får navnet sitt fra den dypeste/mørkeste tonen, så dersom man vet navnet på alle tonene på den mørke E-strengen, kan man også navnet på alle barreakkordene man tar fra denne strengen.

En lur måte å øve inn dette ordentlig på, er å spille C-dur skalaen oppover på én streng av gangen. Det vil si å starte på mørk E-streng og spille tonen F på 1.bånd, G på 3.bånd, A på 5.bånd, H på 7.bånd osv osv.

Deretter A-strengen: H på 2.bånd, C på 3.bånd, D på 5.bånd osv osv. Og så tilsvarende på alle strengene.

Da blir det slik(spill ferdig én streng av gangen):

e|---0---1---3---5---7---8---10---12------|
H|---0---1---3---5---6---8---10---12------|
G|---0---2---4---5---7---9---10---12------|
D|---0---2---3---5---7---9---10---12------|
A|---0---2---3---5---7---8---10---12------|
E|---0---1---3---5---7---8---10---12------|

Lykke til!







 

Flere artikler:





Nyeste artikler:

Se alle artikler