Artikler


Plekterteknikk med øvelser

Plekterteknikk med øvelser

Publisert: 26.05.14 | Kategori: Gitarist

I denne artikkelen skal vi se på viktigheten av god plekterteknikk, og ta for oss noen øvelser som er gode til å forbedre teknikken.


Plekter er en liten plastskive som blir brukt til å slå an en streng på instrumenter som f.eks gitar, mandolin og banjo. Den plasseres som oftest mellom tommel og pekefinger.

Typer av plekter

Det som først og fremst varierer med de forskjellige gitarplektrene er tykkelsen. På el-gitar er det mest vanlig med harde plektere, mens på akustiske er det myke plektere som gjelder. Ellers er det jo litt smak og behag når det gjelder tykkelse og ikke minst størrelsen på plekteret. De fleste plektere er laget av plast, men det fins også varianter i stein og aluminium.

Hvordan bruke plekteret?

Plekteret holdes mellom tommelen og pekefingeren i høyre hånd:

Plekteret kan enten legges over strengen og slå ann strengen nedover eller under strengen og slå ann strengen oppover. Det beste er om man klarer å kombinere ned- og oppslag annenhver gang. Nedoverslag får en tykkere lyd så man får en fin rytmikk i spillingen med opp- og nedslag. Dessuten er lettere å spille fort når man får inn denne teknikken...

Plekterøvelser

Likt for alle leksjoner gjelder prinsippet om minst mulig bevegelse i høyre hånd. Jo mindre hånda og fingrene beveger seg bort fra strengen jo mer kontroll oppnår man.

Øvelse 1:

Øv på løse strenger. I rolig tempo. Fokuser på høyre hånd at plekteret skal ha annenhver gang ned- og oppslag.

Øvelse 2:

Hold inne em-grepet. Spill annenhver tone ned og opp med plekteret. Begynn med ned.

Øvelse 3:

Spill Am-pentaton skala ned og opp igjen.

e|--------------------------------5--8--|
H|--------------------------5--8--------|
G|--------------------5--7--------------|
D|--------------5--7--------------------|
A|--------5--7--------------------------|
E|--5--8--------------------------------|

e|--8--5--------------------------------|
H|--------8--5--------------------------|
G|--------------7--5--------------------|
D|--------------------7--5--------------|
A|--------------------------7--5--------|
E|--------------------------------8--5--|

Det greie ved å bruke pentaton-skala er at det er 2 toner på hver streng slik at det hele tiden er ned og opp med plekteret for hver streng. Husk å begynne med nedoverslag for å få en tung betoning på første tonen.

Øvelse 4:

Prøv med skalaer som har ulikt antall toner på hver streng, f.eks G-dur skala:

 

e|----------------------------2-3--|
H|------------------------3-5------|
G|------------------2-4-5----------|
D|------------2-4-5----------------|
A|------2-3-5----------------------|
E|--3-5----------------------------|

e|--3-2----------------------------|
H|------5-3------------------------|
G|----------5-4-2------------------|
D|----------------5-4-2------------|
A|----------------------5-3-2------|
E|----------------------------5-3--|

Plektereffekt - overtoner

Ved hjelp av en bevegelse med plekter og tommel kan man skape en overtone-effekt(harmonics), mye brukt i rocke-sjangeren. Måten man gjør det kan være litt vanskelig å forklare uten å vise, men vi prøver. Idet man slår ann strengen nedover skal tommelens første ledd såvidt berøre strengen. Det er kun på spesielle steder på strengen man får en overtone-effekt så det gjelder å lete litt og bli kjent med hvor det lar seg gjøre.






 

Flere artikler:





Nyeste artikler:

Se alle artikler