Kurs  /  Bluegrass melodier & licks  /  Stegnr 1:

Kursinfo



1 / 16STEG

PROGRESJON











Kurs  /  Country & Bluegrass  /  Bluegrass melodier & licks  /

Billy in the Lowground, melodi


BESIFRING
BACKING

  Åpne i ny fane

Ps: Denne tabsen er et "skjelett". Dvs den enkleste formen på melodien 
som man kan velge å utbrodere og improvisere over. Når det gjelder 
hammer on (h) og pull off (p) står man også rimelig fritt når man ønsker 
å benytte dette.  

 
Taters/opptakt:
e|--------------------------------|--------------------------------|
H|-------1-------1-------1-------1|-------1-------1----------------|
G|-----0-----0---------0-----0----|-----0-------0------------------|
D|--------------------------------|--------------------------------|
A|-2h3---------3---2h3---------3--|-2h3-----2h3-----3-------0---2--|
E|--------------------------------|---------------------3----------|
   *       *       *       *        *       *       *       * 



A-del:
e|--------------------------------|--------------------------------|
H|---------------0-1---1-3p1------|---------------0-1--------------|
G|-----------0-2-------------2-0-1|-2-------2p1-2-----2p0----------|
D|-------0-2----------------------|-2---2-----------------3p2---0--|
A|-3p2-3--------------------------|---------------------------3---2|
E|--------------------------------|--------------------------------|
   *       *       *       *        *       *       *       *    
           
           
e|--------------------------------|--------------------------------|
H|---------------0-1---1-3p1------|-------0-1----------------------|
G|-----------0-2-------------2-0-1|-2---2-----2p0------------------|
D|-------0-2----------------------|-2-------------3p2---0----------|
A|-3p2-3--------------------------|-------------------3---2-3---0-2|
E|--------------------------------|--------------------------------|
   *       *       *       *        *       *       *       *   
   

e|--------------------------------|--------------------------------|
H|---------------0-1---1-3p1------|---------------0-1--------------|
G|-----------0-2-------------2-0-1|-2-------2p1-2-----2p0----------|
D|-------0-2----------------------|-2---2-----------------3p2---0--|
A|-3p2-3--------------------------|---------------------------3---2|
E|--------------------------------|--------------------------------|
   *       *       *       *        *       *       *       *   
   

e|--------------------------------|--------------------------------|
H|---------------0-1---1-3p1------|-------0-1----------------------|
G|-----------0-2-------------2-0-1|-2---2-----2p0------------------|
D|-------0-2----------------------|-2-------------3p2---0----------|
A|-3p2-3--------------------------|-------------------3---2-3------|
E|--------------------------------|--------------------------------|
   *       *       *       *        *       *       *       *  




B-del:
e|---3-----3-------3-5-3----------|---5-----5-------5-8-5---0------|
H|/5-----5-----5---------5-3\1-1-3|/6-----6-----6---------8---3p1-3|
G|--------------------------------|--------------------------------|
D|--------------------------------|--------------------------------|
A|--------------------------------|--------------------------------|
E|--------------------------------|--------------------------------|
   *       *       *       *        *       *       *       * 


e|---3-----3-------3-5-3----------|-0---0---0---0-----------0------|
H|/5-----5-----5---------5-3\1-1-3|/5---5---5---5\3-1-------1------|
G|--------------------------------|-------------------2p0-2--------|
D|--------------------------------|--------------------------------|
A|--------------------------------|--------------------------------|
E|--------------------------------|--------------------------------|
   *       *       *       *        *       *       *       * 


e|---3-----3-------3-5-3----------|---5-----5-------5-8-5---0------|
H|/5-----5-----5---------5-3\1-1-3|/6-----6-----6---------8---3p1-3|
G|--------------------------------|--------------------------------|
D|--------------------------------|--------------------------------|
A|--------------------------------|--------------------------------|
E|--------------------------------|--------------------------------|
   *       *       *       *        *       *       *       * 


e|---3-----3-------3-5-3----------|-0---0---0---0---------------0--|
H|/5-----5-----5---------5-3\1-1-3|/5---5---5---5\3-1-----------1--|
G|--------------------------------|-------------------2p0-------0--|
D|--------------------------------|-----------------------3p2---2--|
A|--------------------------------|---------------------------3-3--|
E|--------------------------------|--------------------------------|
   *       *       *       *        *       *       *       * 
Ps: Denne tabsen er et "skjelett". Dvs den enkleste formen på melodien 
som man kan velge å utbrodere og improvisere over. Når det gjelder 
hammer on (h) og pull off (p) står man også rimelig fritt når man ønsker 
å benytte dette.  

 
Taters/opptakt:
e|--------------------------------|--------------------------------|
H|-------1-------1-------1-------1|-------1-------1----------------|
G|-----0-----0---------0-----0----|-----0-------0------------------|
D|--------------------------------|--------------------------------|
A|-2h3---------3---2h3---------3--|-2h3-----2h3-----3-------0---2--|
E|--------------------------------|---------------------3----------|
   *       *       *       *        *       *       *       * 



A-del:
e|--------------------------------|--------------------------------|
H|---------------0-1---1-3p1------|---------------0-1--------------|
G|-----------0-2-------------2-0-1|-2-------2p1-2-----2p0----------|
D|-------0-2----------------------|-2---2-----------------3p2---0--|
A|-3p2-3--------------------------|---------------------------3---2|
E|--------------------------------|--------------------------------|
   *       *       *       *        *       *       *       *    
           
           
e|--------------------------------|--------------------------------|
H|---------------0-1---1-3p1------|-------0-1----------------------|
G|-----------0-2-------------2-0-1|-2---2-----2p0------------------|
D|-------0-2----------------------|-2-------------3p2---0----------|
A|-3p2-3--------------------------|-------------------3---2-3---0-2|
E|--------------------------------|--------------------------------|
   *       *       *       *        *       *       *       *   
   

e|--------------------------------|--------------------------------|
H|---------------0-1---1-3p1------|---------------0-1--------------|
G|-----------0-2-------------2-0-1|-2-------2p1-2-----2p0----------|
D|-------0-2----------------------|-2---2-----------------3p2---0--|
A|-3p2-3--------------------------|---------------------------3---2|
E|--------------------------------|--------------------------------|
   *       *       *       *        *       *       *       *   
   

e|--------------------------------|--------------------------------|
H|---------------0-1---1-3p1------|-------0-1----------------------|
G|-----------0-2-------------2-0-1|-2---2-----2p0------------------|
D|-------0-2----------------------|-2-------------3p2---0----------|
A|-3p2-3--------------------------|-------------------3---2-3------|
E|--------------------------------|--------------------------------|
   *       *       *       *        *       *       *       *  




B-del:
e|---3-----3-------3-5-3----------|---5-----5-------5-8-5---0------|
H|/5-----5-----5---------5-3\1-1-3|/6-----6-----6---------8---3p1-3|
G|--------------------------------|--------------------------------|
D|--------------------------------|--------------------------------|
A|--------------------------------|--------------------------------|
E|--------------------------------|--------------------------------|
   *       *       *       *        *       *       *       * 


e|---3-----3-------3-5-3----------|-0---0---0---0-----------0------|
H|/5-----5-----5---------5-3\1-1-3|/5---5---5---5\3-1-------1------|
G|--------------------------------|-------------------2p0-2--------|
D|--------------------------------|--------------------------------|
A|--------------------------------|--------------------------------|
E|--------------------------------|--------------------------------|
   *       *       *       *        *       *       *       * 


e|---3-----3-------3-5-3----------|---5-----5-------5-8-5---0------|
H|/5-----5-----5---------5-3\1-1-3|/6-----6-----6---------8---3p1-3|
G|--------------------------------|--------------------------------|
D|--------------------------------|--------------------------------|
A|--------------------------------|--------------------------------|
E|--------------------------------|--------------------------------|
   *       *       *       *        *       *       *       * 


e|---3-----3-------3-5-3----------|-0---0---0---0---------------0--|
H|/5-----5-----5---------5-3\1-1-3|/5---5---5---5\3-1-----------1--|
G|--------------------------------|-------------------2p0-------0--|
D|--------------------------------|-----------------------3p2---2--|
A|--------------------------------|---------------------------3-3--|
E|--------------------------------|--------------------------------|
   *       *       *       *        *       *       *       * 


 


Om steg 1:

Gratis steg

Den første melodien vi skal prøve oss på kommer opprinnelig fra Irland. Den er blant de aller mest kjente bluegrass-låtene og spilles mye på bluegrass jam.

I videoen kommer instruktør Magnus inn på hvordan spille flatpicking, som er en gitarteknikk ofte forbundet med bluegrass.


FERDIG, GÅ VIDERE

Lærer: Magnus Wiik


Velg abonnement:



Medlemsfordeler:

  • Tilgang til alle kurs og videoleksjoner i alle sjangre og nivåer.
  • Strukturerte, pedagogisk oppbygde kurs i forskjellige emner.
  • Stort bibliotek med grep, skala og backingtracks.