Kurs  /  Bluegrass melodier & licks  /  Stegnr 2:

Kursinfo



2 / 16STEG

PROGRESJON











Kurs  /  Country & Bluegrass  /  Bluegrass melodier & licks  /

Billy in the Lowground, komp


BESIFRING
BACKING
GREP

  Åpne i ny fane


Taters/opptakt:
   C 
e|-----------3-3-3-----3-----3-3-3|-------3-------3-----3-----3-3-3|
H|-------1---1-1-1-----1-----1-1-1|-------1-------1-----1-----1-1-1|
G|-----0-----0---------0-----0----|-----0-------0-------0-----0----|
D|--------------------------------|--------------------------------|
A|-2h3-------------3--------------|-2h3-----2h3-----3--------------|
E|--------------------------------|--------------------------------|
   *       *       *       *        *       *       *       *   

   C
e|-----3-----3-3-3-----3-----3-3-3|-------3-------3----------------|
H|-----1-----1-1-1-----1-----1-1-1|-------1-------1----------------|
G|-----0-----0---------0-----0----|-----0-------0------------------|
D|--------------------------------|--------------------------------|
A|-3---------------3--------------|-2h3-----2h3-----3-------0---2--|
E|--------------------------------|---------------------3----------|
   *       *       *       *        *       *       *       * 



A-del:
   C                                Am7                     G/H
e|-----3-------3-------3---------3|-----0-------0-------0----------|
H|-----1-------1-------1---------1|-----1-------1-------1-------3--|
G|-----0-------0-------0-------0-0|-----0-------0-------0-------0--|
D|-------------------------0h2----|-----2-------2-------2----------|
A|-3-------3-------3--------------|-0-------0-------0-------2------|
E|--------------------------------|--------------------------------|
   *       *       *       *        *       *       *       *   
   
   C                       G/H      Am7             G/H     C
e|-----3-3-------------3-3--------|-----0-----0-0-0-------------3-3|
H|-----1-1-------1-----1-1-----3-3|-----1-----1-1-1-----3-3-----1-1|
G|-----0-------0-------0-------0-0|-----0-----0-0-0-----0-0-----0--|
D|---------0h2--------------------|-----2--------------------------|
A|-3---------------3-------2------|-0---------------2-------3------|
E|--------------------------------|--------------------------------|
   *       *       *       *        *       *       *       * 

   C                       G/H      Am7                     G/H
e|-----3-3-------------3-3--------|-----0-----0-0-0-----0-0--------|
H|-----1-1-------1-----1-1-----3-3|-----1-----1-1-1-----1-1-----3-3|
G|-----0-------0-------0-------0-0|-----0-----0-0-0-----0-0-----0-0|
D|---------0h2--------------------|-----2--------------------------|
A|-3---------------3-------2------|-0---------------0-------2------|
E|--------------------------------|--------------------------------|
   *       *       *       *        *       *       *       * 

   C                       G/H      Am7             G       C
e|-----3-3-------------3----------|-----0-----0-0-0-------------3-3|
H|-----1-1-------1-----1-------3--|-----1-----1-1-1-----3-------1-1|
G|-----0-------0-------0-------0--|-----0-----0-0-0-----0-------0--|
D|---------0h2--------------------|-----2---------------x----------|
A|-3---------------3-------2------|-0-----------------------3------|
E|--------------------------------|-----------------3--------------|
   *       *       *       *        *       *       *       * 
  
  

B-del: 
   C                                F
e|-----3-3------------------------|--------------------------------|
H|-----1-1-----1-1-----1-1-----1-1|-----1-1-----1-1-----1-1-----1-1|
G|-----0-------0-0-----0-0-----0-0|-----2-2-----2-2-----2-2-----2-2|
D|---------0-------1-------2------|-3---------------3--------------|
A|-3------------------------------|---------3---------------3------|
E|--------------------------------|--------------------------------|
   *       *       *       *        *       *       *       * 

   C                       G/H      Am7             G       C
e|-----3-3-------------3----------|-----0-----0-0-0-------------3-3|
H|-----1-1-------1-----1-------3--|-----1-----1-1-1-----3-------1-1|
G|-----0-------0-------0-------0--|-----0-----0-0-0-----0-------0--|
D|---------0h2--------------------|-----2--------------------------|
A|-3---------------3-------2------|-0-----------------------3------|
E|--------------------------------|-----------------3--------------|
   *       *       *       *        *       *       *       * 

   C                                F
e|-----3-3------------------------|--------------------------------|
H|-----1-1-----1-1-----1-1-----1-1|-----1-1-----1-1-----1-1--------|
G|-----0-------0-0-----0-0-----0-0|-----2-2-----2-2-----2-2--------|
D|---------0-------1-------2------|-3---------------3-------1---0--|
A|-3------------------------------|---------3----------------------|
E|--------------------------------|--------------------------------|
   *       *       *       *        *       *       *       * 

   C                       G/H      Am7             G       C
e|-----3-3-------------3----------|-----0-----0-0-0-------------3-3|
H|-----1-1-------1-----1-------3--|-----1-----1-1-1-----3-------1-1|
G|-----0-------0-------0-------0--|-----0-----0-0-0-----0-------0--|
D|---------0h2--------------------|-----2--------------------------|
A|-3---------------3-------2------|-0-----------------------3------|
E|--------------------------------|-----------------3--------------|
   *       *       *       *        *       *       *       * 




A-del:
   C                       G/H          Am7                     G/H
e|-----3-3----3-3-3----3-3--------|-----0-----0-0-0-----0-0--------|
H|-----1-1----1-1-1----1-1-----3--|-----1-----1-1-1-----1-1-----3-3|
G|-----0------0--------0-------0--|-----0-----0-0-0-----0-0-----0-0|
D|--------------------------------|-----2--------------------------|
A|-2h3-------------2h3-----2------|-0---------------0-------2------|
E|--------------------------------|--------------------------------|
   *       *       *       *        *       *       *       *   

   C                       G/H          Am7         G/H     C   
e|-----3-3----3-3-3----3-3--------|-----0-----0-0-0-------------3-3|
H|-----1-1----1-1-1----1-1-----3--|-----1-----1-1-1-----3-3-----1-1|
G|-----0------0--------0-------0--|-----0-----0-0-0-----0-0-----0--|
D|--------------------------------|-----2--------------------------|
A|-2h3-------------2h3-----2------|-0---------------2-------3------|
E|--------------------------------|--------------------------------|
   *       *       *       *        *       *       *       * 
   
   C                                Am7                     G/H
e|-----3-3-------3-3--3-3-3-------|-----0-----0-0-0-----0-0--------|
H|-----1-1-------1-1--1-1-1-------|-----1-----1-1-1-----1-1-----3-3|
G|-----0---------0----0-0-0-------|-----0-----0-0-0-----0-0-----0-0|
D|--------------------------------|-----2--------------------------|
A|-3-------2h3-------------3---2--|-0---------------0-------2------|
E|--------------------------------|--------------------------------|
   *       *       *       *        *       *       *       * 

   C                       G/H      Am7             G/H     C
e|-----3-----3-3-3-----3-3--------|-----0-----0-0-0-------------3-3|
H|-----1-----1-1-1-----1-1-----3-3|-----1-----1-1-1-----3-3-----1-1|
G|-----0-----0-0-0-----0-------0-0|-----0-----0-0-0-----0-0-----0--|
D|--------------------------------|-----2--------------------------|
A|-3---------------2h3-----2------|-0---------------2-------3------|
E|--------------------------------|--------------------------------|
   *       *       *       *        *       *       *       * 



B-del:
   C                                F
e|-----3-3------------------------|--------------------------------|
H|-----1-1-----1-1-----1-1-----1-1|-----1-1-----1-1-----1-1--------|
G|-----0-------0-0-----0-0-----0-0|-----2-2-----2-2-----2-2--------|
D|---------0-------1-------2------|-3---------------3-------1---0--|
A|-3------------------------------|---------3----------------------|
E|--------------------------------|--------------------------------|
   *       *       *       *        *       *       *       * 

   C                       G/H      Am7             G/H     C
e|-----3-3-------------3----------|-----0-----0-0-0-------------3-3|
H|-----1-1-------1-----1-------3--|-----1-----1-1-1-----3-------1-1|
G|-----0-------0-------0-------0--|-----0-----0-0-0-----0-------0--|
D|---------0h2--------------------|-----2--------------------------|
A|-3---------------3-------2------|-0---------------2-------3------|
E|--------------------------------|--------------------------------|
   *       *       *       *        *       *       *       * 

   C                                F    
e|-----3-3-----3-3----------------|--------------------------------|
H|-----1-1-----1-1----------------|-----1-1-----1-1-----1-1--------|
G|-----0-------0------------------|-----2-2-----2-2-----2-2--------|
D|---------0h2---------0---1---2--|-3---------------3-------1---0--|
A|-3---------------3--------------|---------3----------------------|
E|--------------------------------|--------------------------------|
   *       *       *       *        *       *       *       *   

   C                       G/H      Am7             G       C
e|-----3-3-------------3----------|-----0-----0-0-0----------------|
H|-----1-1-------1-----1-------3--|-----1-----1-1-1-----3----------|
G|-----0-------0-------0-------0--|-----0-----0-0-0-----0----------|
D|---------0h2--------------------|-----2--------------------------|
A|-3---------------3-------2------|-0-----------------------3------|
E|--------------------------------|-----------------3--------------|
   *       *       *       *        *       *       *       * 

Taters/opptakt:
   C 
e|-----------3-3-3-----3-----3-3-3|-------3-------3-----3-----3-3-3|
H|-------1---1-1-1-----1-----1-1-1|-------1-------1-----1-----1-1-1|
G|-----0-----0---------0-----0----|-----0-------0-------0-----0----|
D|--------------------------------|--------------------------------|
A|-2h3-------------3--------------|-2h3-----2h3-----3--------------|
E|--------------------------------|--------------------------------|
   *       *       *       *        *       *       *       *   

   C
e|-----3-----3-3-3-----3-----3-3-3|-------3-------3----------------|
H|-----1-----1-1-1-----1-----1-1-1|-------1-------1----------------|
G|-----0-----0---------0-----0----|-----0-------0------------------|
D|--------------------------------|--------------------------------|
A|-3---------------3--------------|-2h3-----2h3-----3-------0---2--|
E|--------------------------------|---------------------3----------|
   *       *       *       *        *       *       *       * 



A-del:
   C                                Am7                     G/H
e|-----3-------3-------3---------3|-----0-------0-------0----------|
H|-----1-------1-------1---------1|-----1-------1-------1-------3--|
G|-----0-------0-------0-------0-0|-----0-------0-------0-------0--|
D|-------------------------0h2----|-----2-------2-------2----------|
A|-3-------3-------3--------------|-0-------0-------0-------2------|
E|--------------------------------|--------------------------------|
   *       *       *       *        *       *       *       *   
   
   C                       G/H      Am7             G/H     C
e|-----3-3-------------3-3--------|-----0-----0-0-0-------------3-3|
H|-----1-1-------1-----1-1-----3-3|-----1-----1-1-1-----3-3-----1-1|
G|-----0-------0-------0-------0-0|-----0-----0-0-0-----0-0-----0--|
D|---------0h2--------------------|-----2--------------------------|
A|-3---------------3-------2------|-0---------------2-------3------|
E|--------------------------------|--------------------------------|
   *       *       *       *        *       *       *       * 

   C                       G/H      Am7                     G/H
e|-----3-3-------------3-3--------|-----0-----0-0-0-----0-0--------|
H|-----1-1-------1-----1-1-----3-3|-----1-----1-1-1-----1-1-----3-3|
G|-----0-------0-------0-------0-0|-----0-----0-0-0-----0-0-----0-0|
D|---------0h2--------------------|-----2--------------------------|
A|-3---------------3-------2------|-0---------------0-------2------|
E|--------------------------------|--------------------------------|
   *       *       *       *        *       *       *       * 

   C                       G/H      Am7             G       C
e|-----3-3-------------3----------|-----0-----0-0-0-------------3-3|
H|-----1-1-------1-----1-------3--|-----1-----1-1-1-----3-------1-1|
G|-----0-------0-------0-------0--|-----0-----0-0-0-----0-------0--|
D|---------0h2--------------------|-----2---------------x----------|
A|-3---------------3-------2------|-0-----------------------3------|
E|--------------------------------|-----------------3--------------|
   *       *       *       *        *       *       *       * 
  
  

B-del: 
   C                                F
e|-----3-3------------------------|--------------------------------|
H|-----1-1-----1-1-----1-1-----1-1|-----1-1-----1-1-----1-1-----1-1|
G|-----0-------0-0-----0-0-----0-0|-----2-2-----2-2-----2-2-----2-2|
D|---------0-------1-------2------|-3---------------3--------------|
A|-3------------------------------|---------3---------------3------|
E|--------------------------------|--------------------------------|
   *       *       *       *        *       *       *       * 

   C                       G/H      Am7             G       C
e|-----3-3-------------3----------|-----0-----0-0-0-------------3-3|
H|-----1-1-------1-----1-------3--|-----1-----1-1-1-----3-------1-1|
G|-----0-------0-------0-------0--|-----0-----0-0-0-----0-------0--|
D|---------0h2--------------------|-----2--------------------------|
A|-3---------------3-------2------|-0-----------------------3------|
E|--------------------------------|-----------------3--------------|
   *       *       *       *        *       *       *       * 

   C                                F
e|-----3-3------------------------|--------------------------------|
H|-----1-1-----1-1-----1-1-----1-1|-----1-1-----1-1-----1-1--------|
G|-----0-------0-0-----0-0-----0-0|-----2-2-----2-2-----2-2--------|
D|---------0-------1-------2------|-3---------------3-------1---0--|
A|-3------------------------------|---------3----------------------|
E|--------------------------------|--------------------------------|
   *       *       *       *        *       *       *       * 

   C                       G/H      Am7             G       C
e|-----3-3-------------3----------|-----0-----0-0-0-------------3-3|
H|-----1-1-------1-----1-------3--|-----1-----1-1-1-----3-------1-1|
G|-----0-------0-------0-------0--|-----0-----0-0-0-----0-------0--|
D|---------0h2--------------------|-----2--------------------------|
A|-3---------------3-------2------|-0-----------------------3------|
E|--------------------------------|-----------------3--------------|
   *       *       *       *        *       *       *       * 




A-del:
   C                       G/H          Am7                     G/H
e|-----3-3----3-3-3----3-3--------|-----0-----0-0-0-----0-0--------|
H|-----1-1----1-1-1----1-1-----3--|-----1-----1-1-1-----1-1-----3-3|
G|-----0------0--------0-------0--|-----0-----0-0-0-----0-0-----0-0|
D|--------------------------------|-----2--------------------------|
A|-2h3-------------2h3-----2------|-0---------------0-------2------|
E|--------------------------------|--------------------------------|
   *       *       *       *        *       *       *       *   

   C                       G/H          Am7         G/H     C   
e|-----3-3----3-3-3----3-3--------|-----0-----0-0-0-------------3-3|
H|-----1-1----1-1-1----1-1-----3--|-----1-----1-1-1-----3-3-----1-1|
G|-----0------0--------0-------0--|-----0-----0-0-0-----0-0-----0--|
D|--------------------------------|-----2--------------------------|
A|-2h3-------------2h3-----2------|-0---------------2-------3------|
E|--------------------------------|--------------------------------|
   *       *       *       *        *       *       *       * 
   
   C                                Am7                     G/H
e|-----3-3-------3-3--3-3-3-------|-----0-----0-0-0-----0-0--------|
H|-----1-1-------1-1--1-1-1-------|-----1-----1-1-1-----1-1-----3-3|
G|-----0---------0----0-0-0-------|-----0-----0-0-0-----0-0-----0-0|
D|--------------------------------|-----2--------------------------|
A|-3-------2h3-------------3---2--|-0---------------0-------2------|
E|--------------------------------|--------------------------------|
   *       *       *       *        *       *       *       * 

   C                       G/H      Am7             G/H     C
e|-----3-----3-3-3-----3-3--------|-----0-----0-0-0-------------3-3|
H|-----1-----1-1-1-----1-1-----3-3|-----1-----1-1-1-----3-3-----1-1|
G|-----0-----0-0-0-----0-------0-0|-----0-----0-0-0-----0-0-----0--|
D|--------------------------------|-----2--------------------------|
A|-3---------------2h3-----2------|-0---------------2-------3------|
E|--------------------------------|--------------------------------|
   *       *       *       *        *       *       *       * 



B-del:
   C                                F
e|-----3-3------------------------|--------------------------------|
H|-----1-1-----1-1-----1-1-----1-1|-----1-1-----1-1-----1-1--------|
G|-----0-------0-0-----0-0-----0-0|-----2-2-----2-2-----2-2--------|
D|---------0-------1-------2------|-3---------------3-------1---0--|
A|-3------------------------------|---------3----------------------|
E|--------------------------------|--------------------------------|
   *       *       *       *        *       *       *       * 

   C                       G/H      Am7             G/H     C
e|-----3-3-------------3----------|-----0-----0-0-0-------------3-3|
H|-----1-1-------1-----1-------3--|-----1-----1-1-1-----3-------1-1|
G|-----0-------0-------0-------0--|-----0-----0-0-0-----0-------0--|
D|---------0h2--------------------|-----2--------------------------|
A|-3---------------3-------2------|-0---------------2-------3------|
E|--------------------------------|--------------------------------|
   *       *       *       *        *       *       *       * 

   C                                F    
e|-----3-3-----3-3----------------|--------------------------------|
H|-----1-1-----1-1----------------|-----1-1-----1-1-----1-1--------|
G|-----0-------0------------------|-----2-2-----2-2-----2-2--------|
D|---------0h2---------0---1---2--|-3---------------3-------1---0--|
A|-3---------------3--------------|---------3----------------------|
E|--------------------------------|--------------------------------|
   *       *       *       *        *       *       *       *   

   C                       G/H      Am7             G       C
e|-----3-3-------------3----------|-----0-----0-0-0----------------|
H|-----1-1-------1-----1-------3--|-----1-----1-1-1-----3----------|
G|-----0-------0-------0-------0--|-----0-----0-0-0-----0----------|
D|---------0h2--------------------|-----2--------------------------|
A|-3---------------3-------2------|-0-----------------------3------|
E|--------------------------------|-----------------3--------------|
   *       *       *       *        *       *       *       * 


 

Om grepsdiagrammet


Vi bruker akkorden D dur som eksempel:

  1. De vertikale strekene viser gitarens 6 strenger. Streken til venstre er gitarens dypeste streng.
  2. De horisontale strekene viser gitarens bånd. I utgangspunktet vises gitarhalsens 5 første bånd, men hvis det er grep som tas høyere opp på gitarhalsen vil det på venstre side av diagrammet stå hvilket bånd man kan orientere seg ut fra.
  3. De svarte prikkene viser hvor vi skal legge fingrene på gitarhalsen, og tallene inni prikkene viser hvilke fingre vi skal bruke for å ta grepet.
  4. Bokstavene D A D F# forteller navnet på notene på strengene som spilles.
  5. Øverst på diagrammet ser vi symbolene 'O' og 'X'.
    • O = strengen skal spilles på.
    • X = strengen skal IKKE spilles på.
  6. Til venstre ser vi tallene 1, 2, 3, 4 og 5. Disse viser hvilket bånd som er utgangspunkt for grepet.

D

1.

2.

3.

4.

5.

  • X
  • X
  • O
  •  
  •  
  •  
  • D
  • A
  • D
  • F#




×

C

1.

2.

3.

4.

5.

  • X
  •  
  •  
  • O
  •  
  •  
  • C
  • E
  • G
  • C
  • G

A m7

1.

2.

3.

4.

5.

  • X
  • O
  •  
  • O
  •  
  • O
  • A
  • E
  • G
  • C
  • E

G /H

1.

2.

3.

4.

5.

  • X
  •  
  • O
  • O
  •  
  • X
  • H
  • D
  • G
  • D

F

1.

2.

3.

4.

5.

  • X
  • X
  •  
  •  
  •  
  • X
  • F
  • A
  • C

C

1.

2.

3.

4.

5.

  • X
  •  
  •  
  • O
  •  
  • O
  • C
  • E
  • G
  • C
  • E

A m

1.

2.

3.

4.

5.

  • X
  • O
  •  
  •  
  •  
  • O
  • A
  • E
  • A
  • C
  • E

G

1.

2.

3.

4.

5.

  •  
  •  
  • O
  • O
  • O
  •  
  • G
  • H
  • D
  • G
  • H
  • G

F

1.

2.

3.

4.

5.

  •  
  •  
  •  
  •  
  •  
  •  
  • F
  • C
  • F
  • A
  • C
  • F
 


Om steg 2:

Gratis steg

Vi ser i dette steget på gitarkompet til Billy in the Lowground og tar for oss rytme og hvordan grepene kan spilles. I tillegg kommer vi inn på vekselbass og ulike passende basslinjer.

Det er flere måter å spille kompet på og det er absolutt rom for variasjon, men i denne videoen får vi mange gode tips og god innføring i bluegrass kompspilling.


FERDIG, GÅ VIDERE

Lærer: Magnus Wiik


Velg abonnement:



Medlemsfordeler:

  • Tilgang til alle kurs og videoleksjoner i alle sjangre og nivåer.
  • Strukturerte, pedagogisk oppbygde kurs i forskjellige emner.
  • Stort bibliotek med grep, skala og backingtracks.