Dagens videoleksjon 1

Take on me

Snart slutt på A-ha weekend, men vi avslutter med stil, med tidenes norske hitlåt Take on me.


Loading the player...

 


Tabs / besifring:

Take on me [A-ha]

INTRO:
e|---------------------4-4-5-7-|-5-5-5-----------------------|
H|-7-7---------5--5--5---------|-------5-----7--7--7-5-5-7-5-|  
G|-----7-4--4------------------|----------7------------------|  x3
D|-----------------------------|-----------------------------| 
A|-----------------------------|-----------------------------|
E|-----------------------------|-----------------------------|


VERS 1:
Hm        E    A                 D      A/C#
Talking away,  I don't know what I'm to say
     Hm        E       A            D      A/C#
I'll say it anyway, today's another day to find you
Hm      E    F#m                      D    
 Shine away,  I'll be coming for your love OK



REFRENG:
A    E/G#  F#m   D 
Take  on   me   (take on me)
A    E/G#  F#m   D
Take me    on   (take on me)
A    E/G#  F#m   D
I'll be    gone 
     A   E/G#    D   E
in a day or two



VERS 2:
So, needless to say at odds and ends, but I feel
stumbling awake slowly learning that life is OK,         
Say after me, it's so much better to be safe than sorry
 

-REFRENG-


INSTRUMENTAL: | C#m |  G  | C#m |  G  |  Hm  |  E  |


MELLOMSPILL:
e|---------------------4-4-5-7-|
H|-7-7---------5--5--5---------| 
G|-----7-4--4------------------|  x3
D|-----------------------------| 
A|-----------------------------|
E|-----------------------------|


e|---------------------4-4-5-7-|-5-5-5-----------------------|
H|-7-7---------5--5--5---------|-------5-----7--7--7-5-5-7-5-|  
G|-----7-4--4------------------|----------7------------------|  x3
D|-----------------------------|-----------------------------| 
A|-----------------------------|-----------------------------|
E|-----------------------------|-----------------------------|



VERS 3:
Oh, things that you say, yeah is it life or just to play
My worries away, you're all the things I've got to remember  
You shine away, I'll be coming for you anyway



-REFRENG- x3

Take on me [A-ha]


INTRO:
e|---------------------4-4-5-7-|-5-5-5-----------------------|
H|-7-7---------5--5--5---------|-------5-----7--7--7-5-5-7-5-|  
G|-----7-4--4------------------|----------7------------------|  x3
D|-----------------------------|-----------------------------| 
A|-----------------------------|-----------------------------|
E|-----------------------------|-----------------------------|


VERS 1:
Hm        E    A                 D      A/C#
Talking away,  I don't know what I'm to say
     Hm        E       A            D      A/C#
I'll say it anyway, today's another day to find you
Hm      E    F#m                      D    
 Shine away,  I'll be coming for your love OK



REFRENG:
A    E/G#  F#m   D 
Take  on   me   (take on me)
A    E/G#  F#m   D
Take me    on   (take on me)
A    E/G#  F#m   D
I'll be    gone 
     A   E/G#    D   E
in a day or two



VERS 2:
So, needless to say at odds and ends, but I feel
stumbling awake slowly learning that life is OK,         
Say after me, it's so much better to be safe than sorry
 

-REFRENG-


INSTRUMENTAL: | C#m |  G  | C#m |  G  |  Hm  |  E  |


MELLOMSPILL:
e|---------------------4-4-5-7-|
H|-7-7---------5--5--5---------| 
G|-----7-4--4------------------|  x3
D|-----------------------------| 
A|-----------------------------|
E|-----------------------------|


e|---------------------4-4-5-7-|-5-5-5-----------------------|
H|-7-7---------5--5--5---------|-------5-----7--7--7-5-5-7-5-|  
G|-----7-4--4------------------|----------7------------------|  x3
D|-----------------------------|-----------------------------| 
A|-----------------------------|-----------------------------|
E|-----------------------------|-----------------------------|



VERS 3:
Oh, things that you say, yeah is it life or just to play
My worries away, you're all the things I've got to remember  
You shine away, I'll be coming for you anyway



-REFRENG- x3
×

Se video, tabs, grep og alt annet til Take on me på videosiden [medlem]

Dagens YouTube-video

A-ha - Take on me

Blir vi lei av denne?


Forrige dag