Dagens videoleksjon 1

Stay on these Roads

Den første låta vi skal prøve oss på i dag er Stay on these roads hentet fra albumet med samme navn som kom ut i 1988.


Loading the player...

 


Tabs / besifring:

Stay on these roads [A-ha]

INTRO: |  G   |  Em  |  C  |  D  | x 2


VERS 1:
    G          Em   
The cold has a voice.
C      D
    It talks to me
G            Em    
Stillborn by choice.
C       D               C     G 
     It airs no need to hold.



MELLOMSPILL:
Hm  Em            C     G
Old man feels the cold.
Hm      Em  
Oh baby don't
      D   
Cause I've been told



REFRENG:
G             Em
Stay on these roads
C             D
We shall meet, I know
G             Em
Stay on... my love
C             D
We shall meet, I know
  G
I know



VERS 2:
Where joy should reign
These skies restrain
Shadow your love
The voice trails off again 
The voice trails off again


-MELLOMSPILL-

-REFRENG- x2

Stay on these roads [A-ha]


INTRO: |  G   |  Em  |  C  |  D  | x 2


VERS 1:
    G          Em   
The cold has a voice.
C      D
    It talks to me
G            Em    
Stillborn by choice.
C       D               C     G 
     It airs no need to hold.



MELLOMSPILL:
Hm  Em            C     G
Old man feels the cold.
Hm      Em  
Oh baby don't
      D   
Cause I've been told



REFRENG:
G             Em
Stay on these roads
C             D
We shall meet, I know
G             Em
Stay on... my love
C             D
We shall meet, I know
  G
I know



VERS 2:
Where joy should reign
These skies restrain
Shadow your love
The voice trails off again 
The voice trails off again


-MELLOMSPILL-

-REFRENG- x2
×

Se video, tabs, grep og alt annet til Stay on these roads på videosiden [medlem]

Dagens videoleksjon 2

Summer moved on

Låt nummer 2 er hentet fra albumet Minor Earth, Major Sky fra 2000. Summer moved on er en typisk A-ha låt: Tung rytme, melodiøst og spenstig vokal. Morten Harket satte dessuten verdensrekord med holde en tone i hele 20.2 sekunder.


Loading the player...

 


Tabs / besifring:

Summer moved on [A-ha]

FINGERSPILL INTRO:
    Em                       Em
e|------------------------|------------------------|
H|-------0---0--0----0----|-------0---0--0----0----|
G|-------0---0--0----0----|-------0---0--0----0----|
D|-------2---2--2----2----|-------2---2--2----2----|
A|------------------------|------------------------|
E|--0-------------0-------|--0-------------0-------|


VERS: 
    Em                      Hm7#5     Hm7
e|------------------------|------------------------|
H|-------0---0--0----0----|-------3---3--3----3----|
G|-------0---0--0----0----|-------2---2--2----2----|
D|-------2---2--2----2----|-------5---4--4----2----|
A|------------------------|--2-------------2-------|
E|--0-------------0-------|------------------------|

    A7                      G         D/F#
e|------------------------|------------------------|
H|-------2---2--2----2----|--------3---------3-----|
G|-------0---0--0----0----|--------0---------2-----|
D|-------2---2--2----2----|-----0---------0--------|
A|--0-------------0-------|------------------------|
E|------------------------|--3---------2-----------|



VERS 1:
Em           Hm7#5 - Hm7       A7
Summer moved on,       and the way it goes
    G          D/F#
You can't tag along.
Em           Hm7#5 - Hm7       A7
Honey moved out,       and the way it went
 G        D/F#  
Leaves no doubt. 
Hm7          Gmaj7
Moments will pass
       F#7sus4 - F#7   Em7      A7
In the morning  light , I found out
Hm7           Gmaj7
Seasons can't last
            F#7sus4  F#7    A7      Em7
And there's just one thing, left to ask



REFRENG:
        Hm7  A               Gmaj7
Stay,       don't just walk away
    F#7#5     F#7
And leave me another 
        Hm7  A               Gmaj7
day        A day just like today
     F#7#5  F#7   Gmaj7
With nobody else around.



VERS 2:
Friendship move on, until the day
You can't get along
Handshakes unfold, and the way it goes
No one knows, moments will pass


-REFRENG-

Summer moved on [A-ha]


FINGERSPILL INTRO:
    Em                       Em
e|------------------------|------------------------|
H|-------0---0--0----0----|-------0---0--0----0----|
G|-------0---0--0----0----|-------0---0--0----0----|
D|-------2---2--2----2----|-------2---2--2----2----|
A|------------------------|------------------------|
E|--0-------------0-------|--0-------------0-------|


VERS: 
    Em                      Hm7#5     Hm7
e|------------------------|------------------------|
H|-------0---0--0----0----|-------3---3--3----3----|
G|-------0---0--0----0----|-------2---2--2----2----|
D|-------2---2--2----2----|-------5---4--4----2----|
A|------------------------|--2-------------2-------|
E|--0-------------0-------|------------------------|

    A7                      G         D/F#
e|------------------------|------------------------|
H|-------2---2--2----2----|--------3---------3-----|
G|-------0---0--0----0----|--------0---------2-----|
D|-------2---2--2----2----|-----0---------0--------|
A|--0-------------0-------|------------------------|
E|------------------------|--3---------2-----------|



VERS 1:
Em           Hm7#5 - Hm7       A7
Summer moved on,       and the way it goes
    G          D/F#
You can't tag along.
Em           Hm7#5 - Hm7       A7
Honey moved out,       and the way it went
 G        D/F#  
Leaves no doubt. 
Hm7          Gmaj7
Moments will pass
       F#7sus4 - F#7   Em7      A7
In the morning  light , I found out
Hm7           Gmaj7
Seasons can't last
            F#7sus4  F#7    A7      Em7
And there's just one thing, left to ask



REFRENG:
        Hm7  A               Gmaj7
Stay,       don't just walk away
    F#7#5     F#7
And leave me another 
        Hm7  A               Gmaj7
day        A day just like today
     F#7#5  F#7   Gmaj7
With nobody else around.



VERS 2:
Friendship move on, until the day
You can't get along
Handshakes unfold, and the way it goes
No one knows, moments will pass


-REFRENG-
×

Se video, tabs, grep og alt annet til Summer moved on på videosiden [medlem]

Dagens YouTube-video

a-ha live - Stay on these roads, Rock in Rio

Nesten 200 000 tusen mennesker kom for å høre A-ha på Maracana Stadion i 1991. En enorm prestasjon som viser hvor store A-ha var - og er - internasjonalt.


Neste dag

Forrige dag