Dagens videoleksjon 1

Manhattan Skyline

Hentet fra album nr. 2, Scoundrel Days, som kom ut i 1986. Denne kontrastfylte låta, med et rolig parti og et mer rocka parti, er skrevet av Magne og Paul. Magne den rolige delen og Paul den rocka delen.


Loading the player...

 


Tabs / besifring:

Manhattan Skyline [A-ha]

FINGERSPILL INTRO:
    Gadd9                Gadd9
e|--------------------|--------------------|
H|--------------0-----|--------------0-----|
G|--------2--------2--|--------2--------2--|
D|-----0-----0--------|-----0-----0--------|
A|--------------------|--------------------|
E|--3-----------------|--3-----------------|


FINGERSPILL VERS: 
    Gadd9                Gadd9
e|--------------------|--------------------|
H|--------------0-----|--------------0-----|
G|--------2--------2--|--------2--------2--|
D|-----0-----0--------|-----0-----0--------|
A|--------------------|--------------------|
E|--3-----------------|--3-----------------|

    Em                   Em
e|--------------------|--------------------|
H|--------------0-----|--------------0-----|
G|--------0--------0--|--------0--------0--|
D|-----2-----2--------|-----2-----2--------|
A|--------------------|--------------------|
E|--0-----------------|--0-----------------|


    Cmaj7                Cmaj7
e|--------------------|--------------------|
H|--------------0-----|--------------0-----|
G|--------0--------0--|--------0--------0--|
D|-----2-----2--------|-----2-----0--------|
A|--3-----------------|--3-----------------|
E|--------------------|--------------------|


    Cmaj7                
e|--------------------|--------------------|
H|--------------0-----|--0-----------------|
G|--------0--------0--|--------2-----0-----|
D|-----2-----2--------|--------------------|
A|--3-----------------|--------------------|
E|--------------------|--------------------|



INTRO: Gadd9


VERS 1:
   Gadd9
We sit and watch umbrelas fly,
Em                    Cmaj7
I'm trying to keep my newspaper dry.
  Gadd9               Em                       Cmaj7
I hear myself say "My boats leaving now" so we shake hands and cry
D/F#        Em             G              Em
Now I must wave good-bye, wave good-bye, wave good-bye,
G              C
wave good-bye, wave good-bye,
A                       
wave good-bye. You know



REFRENG:
E5                   G5   C5        D5            A5    E5
    I don't wan't to cry again.   I don't want to cry again.
                G5       C5      D5            A5   E5
I don't want to say good-bye,  I don't want to cry again,
                G5   C5
I don't want to run away,
  D5            A5        E5                         G5    C5     D5
I don't want to race this pain,  I'll never see your face again

Am     Em   G   Am          D       H7/D#      Em    Am    
Oh but how,     how can you say that I  didn't try,
D        Em    G       Am           D
 You see things in the depths of my eyes
    H7/D#          Em   Am-G-Am D
That my love's run dry,         no-



VERS 2:
We leave to their goodbyes
I've come to depend on the look in 
their eyes
My blood's sweet for pain
The wind and the rain bring back 
words of a song 
And they say wave goodbye
Wave goodbye


-REFRENG-


VERS 3:
So I read to myself
A chance of a lifetime to see new horizons
On the front page a black and white picture of
Manhattan Skyline


Manhattan Skyline [A-ha]


FINGERSPILL INTRO:
    Gadd9                Gadd9
e|--------------------|--------------------|
H|--------------0-----|--------------0-----|
G|--------2--------2--|--------2--------2--|
D|-----0-----0--------|-----0-----0--------|
A|--------------------|--------------------|
E|--3-----------------|--3-----------------|


FINGERSPILL VERS: 
    Gadd9                Gadd9
e|--------------------|--------------------|
H|--------------0-----|--------------0-----|
G|--------2--------2--|--------2--------2--|
D|-----0-----0--------|-----0-----0--------|
A|--------------------|--------------------|
E|--3-----------------|--3-----------------|

    Em                   Em
e|--------------------|--------------------|
H|--------------0-----|--------------0-----|
G|--------0--------0--|--------0--------0--|
D|-----2-----2--------|-----2-----2--------|
A|--------------------|--------------------|
E|--0-----------------|--0-----------------|


    Cmaj7                Cmaj7
e|--------------------|--------------------|
H|--------------0-----|--------------0-----|
G|--------0--------0--|--------0--------0--|
D|-----2-----2--------|-----2-----0--------|
A|--3-----------------|--3-----------------|
E|--------------------|--------------------|


    Cmaj7                
e|--------------------|--------------------|
H|--------------0-----|--0-----------------|
G|--------0--------0--|--------2-----0-----|
D|-----2-----2--------|--------------------|
A|--3-----------------|--------------------|
E|--------------------|--------------------|



INTRO: Gadd9


VERS 1:
   Gadd9
We sit and watch umbrelas fly,
Em                    Cmaj7
I'm trying to keep my newspaper dry.
  Gadd9               Em                       Cmaj7
I hear myself say "My boats leaving now" so we shake hands and cry
D/F#        Em             G              Em
Now I must wave good-bye, wave good-bye, wave good-bye,
G              C
wave good-bye, wave good-bye,
A                       
wave good-bye. You know



REFRENG:
E5                   G5   C5        D5            A5    E5
    I don't wan't to cry again.   I don't want to cry again.
                G5       C5      D5            A5   E5
I don't want to say good-bye,  I don't want to cry again,
                G5   C5
I don't want to run away,
  D5            A5        E5                         G5    C5     D5
I don't want to race this pain,  I'll never see your face again

Am     Em   G   Am          D       H7/D#      Em    Am    
Oh but how,     how can you say that I  didn't try,
D        Em    G       Am           D
 You see things in the depths of my eyes
    H7/D#          Em   Am-G-Am D
That my love's run dry,         no-



VERS 2:
We leave to their goodbyes
I've come to depend on the look in 
their eyes
My blood's sweet for pain
The wind and the rain bring back 
words of a song 
And they say wave goodbye
Wave goodbye


-REFRENG-


VERS 3:
So I read to myself
A chance of a lifetime to see new horizons
On the front page a black and white picture of
Manhattan Skyline


×

Se video, tabs, grep og alt annet til Manhattan Skyline på videosiden [medlem]

Artikkel

Gitarist og komponist Paul Waaktaar-Savoy

Få norske musikere har hatt et mer innholdsrikt musikerliv enn Paul Waaktaar-Savoy. Som gitarist og komponist i A-ha - og senere i Savoy - har han mange store øyeblikk å se tilbake på. Men suksessen kom ikke dansende på ei fjøl.

 

Gjennombruddet med A-ha

Paul Waaktaar-Savoy ble født i 1961 og vokste opp på Manglerud, på østkanten i Oslo. Bydelen der også storheter som f.eks Marius Müller og Knut Reiersrud er fra. I ungdomstiden var det Jimi Hendrix og The Doors som var forbildene for Paul. Han var veldig interesert i musikk og sammen med vennen Magne (Furuholmen) brukte de nesten all fritiden på å spille sammen. Han og Magne var med i en del band før de startet Bridges 1976 sammen med Viggo Bondi og Øystein Jevanord. Bridges ble aldri den helt store suksessen så Pål og Magne bestemte seg i 1981 for å dra til London, i et forsøk på å slå gjennom som musikere der.

I London gikk ikke alt etter planen. Det var vanskelig å få kontakter og de gikk fort tom for penger. Etter et halvt år dro de hjem igjen. Som vi vet sluttet heldigvis ikke historien der. Hjemme i Norge traff de Morten (Harket) og de ble enige om starte bandet A-ha. Etter et halvt år på ei hytte i Røyken der de øvde og spilte inn demo dro de i 1983 igjen over til London. Og igjen ble det en tøff periode. Men etterhvert løsnet det og de kom i kontakt med de rette personene som likte musikken deres. I 1985 ble den endelige versjonen av albumet Hunting high and low spilt inn og anført av Take on me var suksessen nå et faktum.

Gitarist og komponist

Paul Waaktaar-Savoy er en dyktig gitarist, uten å briljere i halsbrekkende soloer. I både A-ha og Savoy tilpasser gitaren seg lydbildet. I popsjangeren er det ikke gitaren som er mest framtredende, den kommer gjerne litt i bakgrunnen av synthene og pop-beaten. Men det er mange låter med mye fint gitarspill, både riffs på el-gitar og mer rolige fingerspill på akustisk gitar. Gøy også at Paul har tatt i bruk den norske-produserte G#-gitaren.

Kanskje er det som komponist Waaktaar-Savoy først og fremst viser sin genialitet. I A-ha var han hjernen, den som snekret sammen de fleste av låtene. Få klarer som han å lage tekster og melodier som passer så bra sammen. Allerede på første albumet til A-ha viser Paul hvilke glimrende tekster, melodier og arrangementer han kan produsere med låter som The sun always shines on Tv, Hunting high and low og Living a boys adventure tale.

Vi håper på mer musikk fra Paul Waaktaar-Savoy framover og det ønsket blir sannsynligvis innfridd siden A-ha nylig har annonsert et nytt comeback (pressekonferanse 25.mars 2015).


 
 

Dagens YouTube-video

Paul Waaktaar-Savoy - Reasons to stay indoors

En velfortjent hyllest til gitaristen og komponisten Paal Waaktaar-Savoy.


Neste dag

Forrige dag