Tyven tyven

[DumDum Boys]

INTRO: ||: Gsus2 - D - A - A  :|| (se tabs lenger ned)


VERS 1:
Gsus2       D         
 spør ingen ikke noen
A                 
 suser i stål i ljåen
Gsus2     D               
  spjærer åpen himmel
A                     
 ingen er trygg på engen


MELLOMSPILL: D - D - A - A 


VERS 2:
Gsus2     D            
  skjærer høsten uten blund
A                      
  uten hvile: blind & stum
Gsus2         D                      
 snart der så her som lyn
A                   
  røver øyenstenen din


REFRENG:
D          A
    Tyven, tyven
A         Gsus2
   Tyven, tyven
D          A
    Tyven, tyven
A         Gsus2
   Tyven, tyven


MELLOMSPILL: ||: Gsus2 - D - A - A  :|| (se tabs lenger ned)


VERS 3:
Gsus2         D              
 finns ei den bot som bøter
A                    
  sønderslitte hjerter
Gsus2   D                  
  ei pardon sparer 
A
ingen hugger ned alle som en


REFRENG:
D           A
    Tyven, tyven
A          Gsus2
   Tyven, tyven
D           A
    Tyven, tyven
A          Gsus2
   Tyven, tyven


MELLOMSPILL: ||: Gsus2 - D - A - A  :|| (se tabs lenger ned)


VERS 4:
Gsus2    D     
 Alle er vi 
A
like for ljåen
Gsus2      D                       
 hadde han sjel var den en 
A           
skjæres røver de som skinner mest


REFRENG x2:
D          A
    Tyven, tyven
A         Gsus2
   Tyven, tyven
D          A
    Tyven, tyven
A         Gsus2
   Tyven, tyven


D                  A
 Tyven tyven røvet øyenstenen
A                      Gsus2              
 smyger i skyggen bare vi er igjen

D                A
 Tyven tyven tok det han fant
A                      Gsus2      D
 alt har vi gjemt blir aldri glemt


D          A
    Tyven, tyven
A         Gsus2
   Tyven, tyven
D          A
    Tyven, tyven
A         Gsus2
   Tyven, tyven   
    
     
   
INTRO-RIFF:
   Gsus2               D
e|------------------------------------------|
H|------------------------------------------|
G|-----------2------------------------------| 
D|-0---------0---------2h4--2----0----2-----|
A|-x----------------------------------------|
E|-3----------------------------------------|
   *         *         *         *        
  

   A                   A
e|------------------------------------------|
H|------------------------------------------|
G|-----------2--------------2---------------| 
D|-----------2---------2h4------------0-----|
A|-0-----------------------------4----------|
E|------------------------------------------|
   *         *         *         *  


   Gsus2               D
e|------------------------------------------|
H|------------------------------------------|
G|-----------2------------------------------| 
D|-----------0---------2h4--2----0----2-----|
A|------------------------------------------|
E|-3----------------------------------------|
   *         *         *         *        
   
  
   A                   A
e|------------------------------------------|
H|------------------------------------------|
G|-----------2--------------2---------------| 
D|-----------2---------2h4------------0-----|
A|-0-----------------------------4----------|
E|------------------------------------------|
   *         *         *         *  
  
   
   
MELLOMSPILL-RIFF:  
   Gsus2               D 
e|------------------------------------------|
H|------------------------------------------|
G|-----------2------------------------------| 
D|-----------0---------2h4--2----0----2-----|
A|------------------------------------------|
E|------3-----------------------------------|
   *         *         *         *        
   

   A                   A   
e|------------------------------------------|
H|------------------------------------------|
G|-----------2--------------2---------------| 
D|-----------2---------2h4------------0-----|
A|-0-----------------------------4----------|
E|------------------------------------------|
   *         *         *         *  


   Gsus2               D
e|------------------------------------------|
H|------------------------------------------|
G|-----------2------------------------------| 
D|------0----0---------2h4--2----0----2-----|
A|------------------------------------------|
E|-3----------------------------------------|
   *         *         *         *        
   
   
   A                   A   
e|------------------------------------------|
H|------------------------------------------|
G|----------------2-------------------------| 
D|-2---------2h4-------2h4---2---------0----|
A|-0----0-------------------------4---------|
E|------------------------------------------|
   *         *         *         *          



Mer av DumDum Boys:




Sanger på norsk


Videoleksjon: Tyven tyven - DumDum Boys [Medlem]



Grep: 

Om grepsdiagrammet


Vi bruker akkorden D dur som eksempel:

  1. De vertikale strekene viser gitarens 6 strenger. Streken til venstre er gitarens dypeste streng.
  2. De horisontale strekene viser gitarens bånd. I utgangspunktet vises gitarhalsens 5 første bånd, men hvis det er grep som tas høyere opp på gitarhalsen vil det på venstre side av diagrammet stå hvilket bånd man kan orientere seg ut fra.
  3. De svarte prikkene viser hvor vi skal legge fingrene på gitarhalsen, og tallene inni prikkene viser hvilke fingre vi skal bruke for å ta grepet.
  4. Bokstavene D A D F# forteller navnet på notene på strengene som spilles.
  5. Øverst på diagrammet ser vi symbolene 'O' og 'X'.
    • O = strengen skal spilles på.
    • X = strengen skal IKKE spilles på.
  6. Til venstre ser vi tallene 1, 2, 3, 4 og 5. Disse viser hvilket bånd som er utgangspunkt for grepet.

D

1.

2.

3.

4.

5.

  • X
  • X
  • O
  •  
  •  
  •  
  • D
  • A
  • D
  • F#




×

G sus2

1.

2.

3.

4.

5.

  •  
  • X
  • O
  •  
  •  
  •  
  • G
  • D
  • A
  • D
  • G

D

1.

2.

3.

4.

5.

  • X
  • X
  • O
  •  
  •  
  •  
  • D
  • A
  • D
  • F#

A

1.

2.

3.

4.

5.

  • X
  • O
  •  
  •  
  •  
  • O
  • A
  • E
  • A
  • C#
  • E