Min beibi dro avsted

[DeLillos]

VERS:
    H            G
Min beibi dro av sted
     D        F#m
I en blå folkevogn
   A           Em              A
Og ba meg om å la henne være i fred
    H              G
Hun tok med seg en walkman
   D             F#m
Og fatterns bassgitar
   A              Em              A
Og sa at jeg ikke fikk lov å være med



REFRENG:
    H            E               A
Min beibi dro av sted hun dro av sted
H                  E                   A
Sammen med de ekle guttene hun spiller med
    D
Hun spiller pønkebassgitar
    C
Hun spiller pønkebassgitar
   E                     D  C#m     F#
Og jeg spiller badminton sammen med far


MELLOMSPILL:


VERS:
    H              G
Min beibi dro av sted
     D        F#m
I en blå folkevogn
   A         Em                 A
Og ba meg om å la henne være i fred
    H              G
Hun tok med seg en walkman
   D             F#m
Og fatterns bassgitar
   A              Em               A
Og sa at jeg ikke fikk lov å være med



REFRENG:
    H            E                  A
Min beibi dro av sted hun dro av sted
H                  E                   A
Sammen med de ekle guttene hun spiller med
    D
Hun spiller pønkebassgitar
    C
Hun spiller pønkebassgitar
   E                      D  C#m     F#
Og jeg spiller bordtennis sammen med far




INTRO + MELLOMSPILL:
    H                        G 
e|-----0--------0--------0-|----0--------0--------0-|
H|--------4--------4-------|-------3--------3-------|
G|*----------4--------4----|----------2--------2---*|x4 
D|*------------------------|-----------------------*|
A|--2----------------------|------------------------|
E|-------------------------|-3----------------------|
    *     *     *     *      *     *     *     *    


VERS:
   H                        G
e|----0--------0--------0-|----0--------0--------0-|
H|-------4--------4-------|-------3--------3-------|
G|----------4--------4----|----------0--------0----| 
D|------------------------|------------------------|
A|-2----------------------|------------------------|
E|------------------------|-3----------------------|
   *     *     *     *      *     *     *     *    

   D                        F#m
e|-—--0--------0--------0-|----0--------0--------0-|
H|-------3--------3-------|-------2--------2-------|
G|----------2--------2----|----------2--------2----| 
D|-0----------------------|------------------------|
A|------------------------|------------------------|
E|------------------------|-2----------------------|
   *     *     *     *      *     *     *     *

   A                        Em
e|-—--0--------0--------0-|----0--------0--------0-|
H|-------2--------2-------|-------0--------0-------|
G|----------2--------2----|----------0--------0----| 
D|------------------------|------------------------|
A|-0----------------------|------------------------|
E|------------------------|-0----------------------|
   *     *     *     *      *     *     *     *

   A                        A
e|-—--0--------0--------0-|----0--------0--------0-|
H|-------2--------2-------|-------2--------2-------|
G|----------2--------2----|----------2--------2----| Spilles  
D|------------------------|------------------------| 2 ganger
A|-0----------------------|-0----------------------|
E|------------------------|------------------------|
   *     *     *     *      *     *     *     *



Mer av DeLillos:




Sanger på norsk


Videoleksjon: Min beibi dro avsted - DeLillos [Medlem]



Grep: 

Om grepsdiagrammet


Vi bruker akkorden D dur som eksempel:

  1. De vertikale strekene viser gitarens 6 strenger. Streken til venstre er gitarens dypeste streng.
  2. De horisontale strekene viser gitarens bånd. I utgangspunktet vises gitarhalsens 5 første bånd, men hvis det er grep som tas høyere opp på gitarhalsen vil det på venstre side av diagrammet stå hvilket bånd man kan orientere seg ut fra.
  3. De svarte prikkene viser hvor vi skal legge fingrene på gitarhalsen, og tallene inni prikkene viser hvilke fingre vi skal bruke for å ta grepet.
  4. Bokstavene D A D F# forteller navnet på notene på strengene som spilles.
  5. Øverst på diagrammet ser vi symbolene 'O' og 'X'.
    • O = strengen skal spilles på.
    • X = strengen skal IKKE spilles på.
  6. Til venstre ser vi tallene 1, 2, 3, 4 og 5. Disse viser hvilket bånd som er utgangspunkt for grepet.

D

1.

2.

3.

4.

5.

  • X
  • X
  • O
  •  
  •  
  •  
  • D
  • A
  • D
  • F#




×

H

1.

2.

3.

4.

5.

  • X
  •  
  •  
  •  
  •  
  •  
  • H
  • F#
  • H
  • D#
  • F#

G

1.

2.

3.

4.

5.

  •  
  •  
  • O
  • O
  •  
  •  
  • G
  • H
  • D
  • G
  • D
  • G

D

1.

2.

3.

4.

5.

  • X
  • X
  • O
  •  
  •  
  •  
  • D
  • A
  • D
  • F#

F# m

1.

2.

3.

4.

5.

  •  
  •  
  •  
  •  
  •  
  •  
  • F#
  • C#
  • F#
  • A
  • C#
  • F#

A

1.

2.

3.

4.

5.

  • X
  • O
  •  
  •  
  •  
  • O
  • A
  • E
  • A
  • C#
  • E

E

1.

2.

3.

4.

5.

  • O
  •  
  •  
  •  
  • O
  • O
  • E
  • H
  • E
  • G#
  • H
  • E

C

1.

2.

3.

4.

5.

  • X
  •  
  •  
  • O
  •  
  • O
  • C
  • E
  • G
  • C
  • E

C# m

4.

5.

6.

7.

8.

  • X
  •  
  •  
  •  
  •  
  •  
  • C#
  • G#
  • C#
  • E
  • G#

F#

1.

2.

3.

4.

5.

  •  
  •  
  •  
  •  
  •  
  •  
  • F#
  • C#
  • F#
  • A#
  • C#
  • F#