Romantikken gjer meg sjuk

[Stein Torleif Bjella]

Intro: 
   A           A           A           Dsus2
e|----------------------------------------------0--|
H|-------2--------2--------------2-----------3-----|
G|----------2--------2--------------2-----2--------| 
D|----2-----------------------2--------0-----------|
A|-0-----------------------0-----------------------|
E|-------------0--------0--------------------------|


   A           A           A           A
e|-------------------------------------------------|
H|-------2--------2--------------2--------2--------|
G|----------2--------2--------------2--------2-----| 
D|----2-----------------------2--------------------|
A|-0-----------------------0-----------------------|
E|-------------0--------0--------------0--------0--|


VERS 1:
A                         
 Lagt vonde visu og trøbbeltanka bort.
                     Dsus2      A
Dei hjølpe lite skal eg få noko gjort.
A
 God vilje og varm energi
                     Dsus2  A
er det som funka på jenta mi.


PRE-REFRENG:
            E                 F#m
Ska eg rope høgt? Det er like før.
               Hm               D
Når eg lét att augun ser eg meg sjøl.
A             E
 I akrobatisk gledesrus
                    A  
på veg te deg, søte pus.


MELLOMSPILL: | A - A - A - Dsus2 | A - A - A - A   |


VERS 2:
A                        
 Du vil kje sakne det du forlét
                    Dsus2 A
for eg ska kysse so jesus gret.
A                    
 Du er redd vegen bli for lang.
                           Dsus2   A
Du har kje sett meg når eg legg på sprang.


PRE-REFRENG:
           E               F#m
Kan eg få vegrett heim til deg?
           Hm                 D
Du skal få bruksrett på heile meg.
       A               E
Eg kan smile og bli forbanna.
                       A
Er teatralsk om ikkje anna.


REFRENG 1:
                      F#m                        A
Når du kjem med heile deg. Det er kje te å halde ut.
            F#m   E                     D    A
Hjarta dele seg.   Romantikken gjer meg sjuk.


BRO/BRIDGE:
                   Hm
No veit eg ko som venta.
D                  A             
 På sjølstyr i Åleineland.
                 Hm                 
Det einaste som virka
D              E
 er stor, stor avstand.


REFRENG 2:
                      F#m                        A
Når du kjem med heile deg. Det er kje te å halde ut.
                   F#m   E                      D  Dm   
Eg kjem kje lenger ned.   Romantikken gjer meg sjuk.


OUTRO: 
   A           A           A           Dsus2
e|----------------------------------------------0--|
H|-------2--------2--------------2-----------3-----|
G|----------2--------2--------------2-----2--------| 
D|----2-----------------------2--------0-----------|
A|-0-----------------------0-----------------------|
E|-------------0--------0--------------------------|


   A           A           A           Dsus2         A
e|----------------------------------------------0--|-0--------
H|-------2--------2--------------2-----------3-----|-2--------
G|----------2--------2--------------2-----2--------|-2-------- 
D|----2-----------------------2--------0-----------|-2--------
A|-0-----------------------0-----------------------|-0--------
E|-------------0--------0--------------------------|----------



Mer av Stein Torleif Bjella:




Sanger på norsk


Videoleksjon: Romantikken gjer meg sjuk - Stein Torleif Bjella [Medlem]



Grep: 

Om grepsdiagrammet


Vi bruker akkorden D dur som eksempel:

  1. De vertikale strekene viser gitarens 6 strenger. Streken til venstre er gitarens dypeste streng.
  2. De horisontale strekene viser gitarens bånd. I utgangspunktet vises gitarhalsens 5 første bånd, men hvis det er grep som tas høyere opp på gitarhalsen vil det på venstre side av diagrammet stå hvilket bånd man kan orientere seg ut fra.
  3. De svarte prikkene viser hvor vi skal legge fingrene på gitarhalsen, og tallene inni prikkene viser hvilke fingre vi skal bruke for å ta grepet.
  4. Bokstavene D A D F# forteller navnet på notene på strengene som spilles.
  5. Øverst på diagrammet ser vi symbolene 'O' og 'X'.
    • O = strengen skal spilles på.
    • X = strengen skal IKKE spilles på.
  6. Til venstre ser vi tallene 1, 2, 3, 4 og 5. Disse viser hvilket bånd som er utgangspunkt for grepet.

D

1.

2.

3.

4.

5.

  • X
  • X
  • O
  •  
  •  
  •  
  • D
  • A
  • D
  • F#




×

A

1.

2.

3.

4.

5.

  • X
  • O
  •  
  •  
  •  
  • O
  • A
  • E
  • A
  • C#
  • E

D

1.

2.

3.

4.

5.

  • X
  • X
  • O
  •  
  •  
  •  
  • D
  • A
  • D
  • F#

E

1.

2.

3.

4.

5.

  • O
  •  
  •  
  •  
  • O
  • O
  • E
  • H
  • E
  • G#
  • H
  • E

F# m

1.

2.

3.

4.

5.

  •  
  •  
  •  
  •  
  •  
  •  
  • F#
  • C#
  • F#
  • A
  • C#
  • F#

H m

1.

2.

3.

4.

5.

  • X
  •  
  •  
  •  
  •  
  •  
  • H
  • F#
  • H
  • D
  • F#

D m

1.

2.

3.

4.

5.

  • X
  • X
  • O
  •  
  •  
  •  
  • D
  • A
  • D
  • F