Kurs  /  Rock & Blues  /  Rockeklassikere fra 70-tallet  /

Sabbath Bloody Sabbath

Black Sabbath


BESIFRING

  Åpne i ny fane

DEL 1:
e|--------------------------------------------|
H|--------------------------------------------|
G|*---h9-------9----------h9-------9-\--------| 
D|*--0h9-------9---------0h9-------9-\--------|
A|---0h7---7-7-7-----7-7-0h7---7-7-7-\--------|
E|--------------------------------------------|
        
    
e|--------------------------------------------|
H|--------------------------------------------|
G|---5-------7------9-------12--\--9---------*| 
D|---5-------7------9-------12--\--9---------*|
A|---3-------5------7-------10--\--7-----7-7--|
E|--------------------------------------------|




DEL 2: 
|  Am9  | Gmaj7 |  Am9  | Gmaj7 |  Am9  | Gmaj7 |  Am7  | ...

...slutten av del 2 (med vreng):
     D 
e|--------------------------------------------|
H|---3-------2------3-------2------3----------|
G|---2-------2------2-------2------2----------| 
D|---0-------0------0-------0------0----------|
A|--------------------------------------------|
E|--------------------------------------------|




DEL 3:
e|--------------------------------------------|
H|--------3----3---------3-----3--------------|
G|--------2h4--2---------2h4---2--------------|
D|----------------5--------------5-2----------|
A|--------------------------------------------|
E|--------------------------------------------|
    

e|--------------------------------------------|
H|--------------------------------------------|
G|--------------2-----------------------------| 
D|---2h4--2--------4------2-------------------|
A|-----------5--------5-----------------------|
E|--------------------------------------------|    
     
     
e|--------------------------------------------|
H|--------------------------------------------|
G|------b14p12-14------b14p12-14--------------|
D|-----------------14------------14-----------|
A|--------------------------------------------|
E|--------------------------------------------|       


e|--------------------------------------------|
H|-b15-15--12---------------------------------|
G|------------b14p12--------------------------| 
D|-------------------14-14--------------------|
A|--------------------------------------------|
E|--------------------------------------------|


e|-----b15-15-r15-12---b15-15-15-15-r15-12----|
H|--------------------------------------------|
G|--------------------------------------------|
D|--------------------------------------------|
A|--------------------------------------------|
E|--------------------------------------------|
          

e|--------------------------------------------|
H|-b15-15--12---------------------------------|
G|------------b14p12--------------------------| 
D|-------------------14-14--------------------|
A|--------------------------------------------|
E|--------------------------------------------|


e|--------------------------------------------|
H|--------------------------------------------|
G|----h9-------9----------h9-------9-\--------| 
D|---0h9-------9---------0h9-------9-\--------|
A|---0h7---7-7-7-----7-7-0h7---7-7-7-\--------|
E|--------------------------------------------|
        
    
e|--------------------------------------------|
H|--------------------------------------------|
G|---5-------7------9-------12--\--9----------| 
D|---5-------7------9-------12--\--9----------|
A|---3-------5------7-------10--\--7----------|
E|--------------------------------------------|       


e|--------------------------------------------|
H|--------------------------------------------|
G|--------------------------------------------| 
D|--12/14---14------12/14---14-----12/14-14---|
A|--10/12---12--(0)-10/12---12-(0)-10/12-12---|
E|--------------------------------------------|
 

e|--------------------------------------------|
H|--------------------------------------------|
G|--------------------------------------------| 
D|---12-----11-----12-------11-----12----9----|
A|---10-----9------10-------9------10----7----|
E|--------------------------------------------| 


e|--------------------------------------------|
H|--------------------------------------------|
G|--------------------------------------------| 
D|--12/14---14------12/14---14-----12/14-14---|
A|--10/12---12--(0)-10/12---12-(0)-10/12-12---|
E|--------------------------------------------|


e|--------------------------------------------|
H|--------------------------------------------|
G|--------------------------------------------| 
D|---12-----11------9------7-------5----7-----|
A|---10-----9-------7------5-------3----5-----|
E|--------------------------------------------|


e|--------------------------------------------|
H|--------------------------------------------|
G|--------------------------------------------| 
D|---4----------------------------------------|
A|---2----------------------------------------|
E|--------------------------------------------|

    
    
     
DEL 4:
e|--------------------------------------------|
H|--------------------------------------------|
G|*------------------------------------------*| 
D|*--------5\4/5\4/5-----------5\4/5-6-------*| Repeter
A|---2--2--5\4/5\4/5-2------2--5\4/5-6--------|
E|---0--0--3\2/3\2/3-0------0--3\2/3-4--------|
     

e|--------------------------------------------|
H|--------------------------------------------|
G|*------------------------------------------*| 
D|*--------------------9----7----5-----------*| Repeter
A|--/7-7-7-5-5h7-7-----7----5----3------------|
E|--------------------------------------------|


e|--------------------------------------------|
H|--------------------------------------------|
G|--------------------------------------------| 
D|---------------------9----7----5-----7------|
A|--/7-7-7-5-5h7-7-----7----5----3-----5------|
E|--------------------------------------------|


e|--------------------------------------------|
H|--------------------------------------------|
G|--------------------------------------------| 
D|---4----------------------------------------|
A|---2----------------------------------------|
E|--------------------------------------------|

    

    
DEL 5:
e|--------------------------------------------|
H|--------------------------------------------|
G|*------------------------------------------*| Repeter
D|*------------------------------------------*|
A|---2--2-2-0---2-2----0-2--2-2-0---2-2----0--|
E|------------2------2------------2------2----|
DEL 1:
e|--------------------------------------------|
H|--------------------------------------------|
G|*---h9-------9----------h9-------9-\--------| 
D|*--0h9-------9---------0h9-------9-\--------|
A|---0h7---7-7-7-----7-7-0h7---7-7-7-\--------|
E|--------------------------------------------|
        
    
e|--------------------------------------------|
H|--------------------------------------------|
G|---5-------7------9-------12--\--9---------*| 
D|---5-------7------9-------12--\--9---------*|
A|---3-------5------7-------10--\--7-----7-7--|
E|--------------------------------------------|




DEL 2: 
|  Am9  | Gmaj7 |  Am9  | Gmaj7 |  Am9  | Gmaj7 |  Am7  | ...

...slutten av del 2 (med vreng):
     D 
e|--------------------------------------------|
H|---3-------2------3-------2------3----------|
G|---2-------2------2-------2------2----------| 
D|---0-------0------0-------0------0----------|
A|--------------------------------------------|
E|--------------------------------------------|




DEL 3:
e|--------------------------------------------|
H|--------3----3---------3-----3--------------|
G|--------2h4--2---------2h4---2--------------|
D|----------------5--------------5-2----------|
A|--------------------------------------------|
E|--------------------------------------------|
    

e|--------------------------------------------|
H|--------------------------------------------|
G|--------------2-----------------------------| 
D|---2h4--2--------4------2-------------------|
A|-----------5--------5-----------------------|
E|--------------------------------------------|    
     
     
e|--------------------------------------------|
H|--------------------------------------------|
G|------b14p12-14------b14p12-14--------------|
D|-----------------14------------14-----------|
A|--------------------------------------------|
E|--------------------------------------------|       


e|--------------------------------------------|
H|-b15-15--12---------------------------------|
G|------------b14p12--------------------------| 
D|-------------------14-14--------------------|
A|--------------------------------------------|
E|--------------------------------------------|


e|-----b15-15-r15-12---b15-15-15-15-r15-12----|
H|--------------------------------------------|
G|--------------------------------------------|
D|--------------------------------------------|
A|--------------------------------------------|
E|--------------------------------------------|
          

e|--------------------------------------------|
H|-b15-15--12---------------------------------|
G|------------b14p12--------------------------| 
D|-------------------14-14--------------------|
A|--------------------------------------------|
E|--------------------------------------------|


e|--------------------------------------------|
H|--------------------------------------------|
G|----h9-------9----------h9-------9-\--------| 
D|---0h9-------9---------0h9-------9-\--------|
A|---0h7---7-7-7-----7-7-0h7---7-7-7-\--------|
E|--------------------------------------------|
        
    
e|--------------------------------------------|
H|--------------------------------------------|
G|---5-------7------9-------12--\--9----------| 
D|---5-------7------9-------12--\--9----------|
A|---3-------5------7-------10--\--7----------|
E|--------------------------------------------|       


e|--------------------------------------------|
H|--------------------------------------------|
G|--------------------------------------------| 
D|--12/14---14------12/14---14-----12/14-14---|
A|--10/12---12--(0)-10/12---12-(0)-10/12-12---|
E|--------------------------------------------|
 

e|--------------------------------------------|
H|--------------------------------------------|
G|--------------------------------------------| 
D|---12-----11-----12-------11-----12----9----|
A|---10-----9------10-------9------10----7----|
E|--------------------------------------------| 


e|--------------------------------------------|
H|--------------------------------------------|
G|--------------------------------------------| 
D|--12/14---14------12/14---14-----12/14-14---|
A|--10/12---12--(0)-10/12---12-(0)-10/12-12---|
E|--------------------------------------------|


e|--------------------------------------------|
H|--------------------------------------------|
G|--------------------------------------------| 
D|---12-----11------9------7-------5----7-----|
A|---10-----9-------7------5-------3----5-----|
E|--------------------------------------------|


e|--------------------------------------------|
H|--------------------------------------------|
G|--------------------------------------------| 
D|---4----------------------------------------|
A|---2----------------------------------------|
E|--------------------------------------------|

    
    
     
DEL 4:
e|--------------------------------------------|
H|--------------------------------------------|
G|*------------------------------------------*| 
D|*--------5\4/5\4/5-----------5\4/5-6-------*| Repeter
A|---2--2--5\4/5\4/5-2------2--5\4/5-6--------|
E|---0--0--3\2/3\2/3-0------0--3\2/3-4--------|
     

e|--------------------------------------------|
H|--------------------------------------------|
G|*------------------------------------------*| 
D|*--------------------9----7----5-----------*| Repeter
A|--/7-7-7-5-5h7-7-----7----5----3------------|
E|--------------------------------------------|


e|--------------------------------------------|
H|--------------------------------------------|
G|--------------------------------------------| 
D|---------------------9----7----5-----7------|
A|--/7-7-7-5-5h7-7-----7----5----3-----5------|
E|--------------------------------------------|


e|--------------------------------------------|
H|--------------------------------------------|
G|--------------------------------------------| 
D|---4----------------------------------------|
A|---2----------------------------------------|
E|--------------------------------------------|

    

    
DEL 5:
e|--------------------------------------------|
H|--------------------------------------------|
G|*------------------------------------------*| Repeter
D|*------------------------------------------*|
A|---2--2-2-0---2-2----0-2--2-2-0---2-2----0--|
E|------------2------2------------2------2----|




Om steg 1:

Gratis steg

"Sabbath Bloody Sabbath" er åpningslåten på albumet med samme navn, som kom ut i 1973. Og bandet er britiske Black Sabbath, med blant annet Ozzy Osbourne på vokal og Tony Iommi på gitar.

I denne leksjonen gjennomgåes alle delene i låten og her er en oversikt:

  • Del 1: Riffbasert del som spilles på intro og vers. Mye powerchords.
  • Del 2: Et roligere parti som spilles med clean lyd.
  • Del 3: Solodel.
  • Del 4: Tøft riffbasert parti som kommer rett etter solodel.
  • Del 5: En liten figur helt på slutten av låta, som komp mens Tony Iommi spiller solo.

FERDIG, GÅ VIDERE

Lærer: Hedvig Mollestad Thomassen


Velg abonnement:



Medlemsfordeler:

  • Tilgang til alle kurs og videoleksjoner i alle sjangre og nivåer.
  • Strukturerte, pedagogisk oppbygde kurs i forskjellige emner.
  • Stort bibliotek med grep, skala og backingtracks.