Asturias, utdrag - I. Albeniz

 Gratis  


Leksjonsinfo


  • Nivå:
  • Lastet opp: 10.02-20
  • Lengde: 11.51 min.
  • Jon Rune Lorentzen

  • Klassisk, rock, barnesanger

  • Jon Rune har studert klassisk gitar i Kristiansand, Cardiff og Oslo. Han har også fortid som rockegitarist med langt hår. Han er med-grunnlegger av Oslo Private Musikkskole og onlinegitar.no.

  • Se alle kurs og leksjoner med Jon Rune Lorentzen

×

Denne tjenesten tilbys av onlinegitar.no. Musikken er gjengitt med tillatelse fra TONO. Uautorisert lenking, videreføring eller kopiering er ulovlig.


TABULATUR
BESIFRING
RELATERT
BLI MEDLEM

  Åpne i ny fane

e|------------------------------------|------------------------------------|
H|----0-----0-----0-----0-----0-----0-|----0-----0-----0-----0-----0-----0-|
G|*-----------------------------------|------------------------------------|
D|*------9-----10----7-----9----------|-------9-----10----7-----9----------|
A|-7-----------------------------10---|-7-----------------------------10---|
E|------------------------------------|------------------------------------|
   *           *           *            *           *           *        


e|------------------------------------|------------------------------------|
H|----0-----0-----0-----0-----0-----0-|----0-----0-----0-----0-----0-----0-|
G|------------------------------------|------------------------------------|
D|-------9-----10----7-----9----------|-7-----------------7----------------|
A|-7-----------------------------10---|-------9-----10----------9-----10---|
E|------------------------------------|------------------------------------|
   *           *           *            *           *           *  


e|------------------------------------|------------------------------------|
H|----0-----0-----0-----0-----0-----0-|----0-----0-----0-----0-----0-----0-|
G|------------------------------------|------------------------------------|
D|-------9-----10----7-----9----------|-------9-----10----7-----9----------|
A|-7-----------------------------10---|-7-----------------------------10---|
E|------------------------------------|------------------------------------|
   *           *           *            *           *           *  


e|------------------------------------|------------------------------------|
H|----0-----0-----0-----0-----0-----0-|----0-----0-----0-----0-----0-----0-|
G|------------------------------------|------------------------------------|
D|-------9-----10----7-----9----------|-7----------------------------------|
A|-7-----------------------------10---|-------9-----10----7----------------|
E|------------------------------------|-------------------------10----8----|
   *           *           *            *           *           *  


e|------------------------------------|------------------------------------|
H|----0-----0-----0-----0-----0-----0-|----0-----0-----0-----0-----0-----0-|
G|------------------------------------|------------------------------------|
D|-------9-----10----7-----9----------|-------9-----10----7-----9----------|
A|-------------------------------9----|-------------------------------9----|
E|-7----------------------------------|-7----------------------------------|
   *           *           *            *           *           * 


e|------------------------------------|------------------------------------|
H|----0-----0-----0-----0-----0-----0-|----0-----0-----0-----0-----0-----0-|
G|------------------------------------|------------------------------------|
D|-------------7-----9-----10----12---|-9-----10----7-----9----------------|
A|-------9----------------------------|-------------------------10----9----|
E|-7----------------------------------|------------------------------------|
   *           *           *            *           *           * 


e|------------------------------------|------------------------------------|
H|----0-----0-----0-----0-----0-----0-|----0-----0-----0-----0-----0-----0-|
G|------------------------------------|------------------------------------|
D|-------9-----10----7-----9----------|-------9-----10----7-----9----------|
A|-------------------------------9----|-------------------------------9----|
E|-7----------------------------------|-7----------------------------------|
   *           *           *            *           *           * 

  Hus 1
e|------------------------------------|------------------------------------|
H|----0-----0-----0-----0-----0-----0-|----0-----0-----0-----0-----0-----0-|
G|------------------------------------|-----------------------------------*|
D|-------------7-----9-----10----12---|-9-----10----7-----9---------------*|
A|-------9----------------------------|-------------------------10----9----|
E|-7----------------------------------|------------------------------------|
   *           *           *            *           *           * 

  Hus 2
e|------------------------------------|------------------------------------|
H|----0-----0-----0-----0-----0-----0-|----0-----0-----0-----0-----0-----0-|
G|------------------------------------|------------------------------------|
D|-------7-----9-----10----12----9----|-10----7-----9-----5-----7-----4----|
A|------------------------------------|------------------------------------|
E|-7----------------------------------|------------------------------------|
   *           *           *            *           *           *

   Em
e|-0----------------------------------|------------------------------------|
H|-0----------------------------------|------------------------------------|
G|-0----------------------------------|------------------------------------|
D|-2----------------------------------|------------------------------------|
A|-2----------------------------------|------------------------------------|
E|-0----------------------------------|------------------------------------|
   *           *           *            *           *           *   
e|------------------------------------|------------------------------------|
H|----0-----0-----0-----0-----0-----0-|----0-----0-----0-----0-----0-----0-|
G|*-----------------------------------|------------------------------------|
D|*------9-----10----7-----9----------|-------9-----10----7-----9----------|
A|-7-----------------------------10---|-7-----------------------------10---|
E|------------------------------------|------------------------------------|
   *           *           *            *           *           *        


e|------------------------------------|------------------------------------|
H|----0-----0-----0-----0-----0-----0-|----0-----0-----0-----0-----0-----0-|
G|------------------------------------|------------------------------------|
D|-------9-----10----7-----9----------|-7-----------------7----------------|
A|-7-----------------------------10---|-------9-----10----------9-----10---|
E|------------------------------------|------------------------------------|
   *           *           *            *           *           *  


e|------------------------------------|------------------------------------|
H|----0-----0-----0-----0-----0-----0-|----0-----0-----0-----0-----0-----0-|
G|------------------------------------|------------------------------------|
D|-------9-----10----7-----9----------|-------9-----10----7-----9----------|
A|-7-----------------------------10---|-7-----------------------------10---|
E|------------------------------------|------------------------------------|
   *           *           *            *           *           *  


e|------------------------------------|------------------------------------|
H|----0-----0-----0-----0-----0-----0-|----0-----0-----0-----0-----0-----0-|
G|------------------------------------|------------------------------------|
D|-------9-----10----7-----9----------|-7----------------------------------|
A|-7-----------------------------10---|-------9-----10----7----------------|
E|------------------------------------|-------------------------10----8----|
   *           *           *            *           *           *  


e|------------------------------------|------------------------------------|
H|----0-----0-----0-----0-----0-----0-|----0-----0-----0-----0-----0-----0-|
G|------------------------------------|------------------------------------|
D|-------9-----10----7-----9----------|-------9-----10----7-----9----------|
A|-------------------------------9----|-------------------------------9----|
E|-7----------------------------------|-7----------------------------------|
   *           *           *            *           *           * 


e|------------------------------------|------------------------------------|
H|----0-----0-----0-----0-----0-----0-|----0-----0-----0-----0-----0-----0-|
G|------------------------------------|------------------------------------|
D|-------------7-----9-----10----12---|-9-----10----7-----9----------------|
A|-------9----------------------------|-------------------------10----9----|
E|-7----------------------------------|------------------------------------|
   *           *           *            *           *           * 


e|------------------------------------|------------------------------------|
H|----0-----0-----0-----0-----0-----0-|----0-----0-----0-----0-----0-----0-|
G|------------------------------------|------------------------------------|
D|-------9-----10----7-----9----------|-------9-----10----7-----9----------|
A|-------------------------------9----|-------------------------------9----|
E|-7----------------------------------|-7----------------------------------|
   *           *           *            *           *           * 

  Hus 1
e|------------------------------------|------------------------------------|
H|----0-----0-----0-----0-----0-----0-|----0-----0-----0-----0-----0-----0-|
G|------------------------------------|-----------------------------------*|
D|-------------7-----9-----10----12---|-9-----10----7-----9---------------*|
A|-------9----------------------------|-------------------------10----9----|
E|-7----------------------------------|------------------------------------|
   *           *           *            *           *           * 

  Hus 2
e|------------------------------------|------------------------------------|
H|----0-----0-----0-----0-----0-----0-|----0-----0-----0-----0-----0-----0-|
G|------------------------------------|------------------------------------|
D|-------7-----9-----10----12----9----|-10----7-----9-----5-----7-----4----|
A|------------------------------------|------------------------------------|
E|-7----------------------------------|------------------------------------|
   *           *           *            *           *           *

   Em
e|-0----------------------------------|------------------------------------|
H|-0----------------------------------|------------------------------------|
G|-0----------------------------------|------------------------------------|
D|-2----------------------------------|------------------------------------|
A|-2----------------------------------|------------------------------------|
E|-0----------------------------------|------------------------------------|
   *           *           *            *           *           *   



Kjøp abonnement og få tilgang til alt innhold!

Velg abonnement:



Medlemsfordeler:

  • Tilgang til alle kurs og videoleksjoner i alle sjangre og nivåer.
  • Strukturerte, pedagogisk oppbygde kurs i forskjellige emner.
  • Stort bibliotek med grep, skala og backingtracks.