Englefjes - DumDum Boys

 Gratis  


Leksjonsinfo


  • Nivå:
  • Lastet opp: 03.06-18
  • Lengde: 8.25 min.
  • David Aleksander Sjølie

  • Rock, pop

  • David Aleksander studerer for tiden gitar ved Norges Musikkhøgskole. Til daglig underviser han og spiller i diverse band og prosjekter, blant annet jazzbandet Mopti som ble kåret til årets unge jazzmusikere i 2012.

  • Se alle kurs og leksjoner med David Aleksander Sjølie

×

Denne tjenesten tilbys av onlinegitar.no. Musikken er gjengitt med tillatelse fra TONO. Uautorisert lenking, videreføring eller kopiering er ulovlig.


BESIFRING
RELATERT
BLI MEDLEM

  Åpne i ny fane

INTRO:
    F 
e|-----------------------------------|----------------------------------|
H|------6---5-----------6---5--------|----------------------------------|
G|*-----5---5-----5-----5---5---5----|----------------------------------|
D|*---------------7-------------7----|----------------------------------|
A|--8--------------------------------|----------------------------------|
E|-----------------------------------|----------------------------------|
    *       *       *       *          *       *       *       *       

   Am7                                G          C/G
e|----------------------------------|-----------------------------------|
H|-------------1--------------------|-----0-------1---------------------|
G|---------0---0--------------------|-----0-------0--------------------*|
D|-----2-------2--------------------|-----0-------2--------------------*| 2x
A|-0--------------------------------|-----------------------------------|
E|----------------------------------|-3---------------------------------|
   *       *       *       *          *       *       *       *      
   
      
VERS 1:
   F 
e|----------------------------------|----------------------------------|
H|-----6---5-----------6---5--------|----------------------------------|
G|-----5---5---5-------5---5---5----|----------------------------------|
D|-------------7---------------7----|----------------------------------|
A|-8--------------------------------|----------------------------------|
E|----------------------------------|----------------------------------|
   *       *       *       *          *       *       *       *       
                   Bor det no`n i    osten på him'len
                                                                     
   Am7                                G          C/G
e|----------------------------------|----------------------------------|
H|-------------1--------------------|-----0-------1--------------------|
G|---------0---0--------------------|-----0-------0--------------------|
D|-----2-------2--------------------|-----0-------2--------------------| 2x
A|-0--------------------------------|----------------------------------|
E|----------------------------------|-3--------------------------------|
   *       *       *       *          *       *       *       *  
                          som ser    husene          fryse,

   F 
e|----------------------------------|----------------------------------|
H|-----6---5-----------6---5--------|----------------------------------|
G|-----5---5---5-------5---5---5----|----------------------------------|
D|-------------7---------------7----|----------------------------------|
A|-8--------------------------------|----------------------------------|
E|----------------------------------|----------------------------------|
   *       *       *       *          *       *       *       *       
                       som ser at   gatene er blinde                         
                                                   
   Am7                                Hb          
e|----------------------------------|----------------------------------|
H|-------------1--------------------|----------------------------------|
G|---------0---0--------------------|-7---7---7---7---7---7---7--------|
D|-----2-------2--------------------|-8---8---8---8---8---8---8--------| 
A|-0--------------------------------|-8---8---8---8---8---8---8--------|
E|----------------------------------|-6---6---6---6---6---6---6--------|
   *       *       *       *          *       *       *       *  
                         og streifer døgnet  rundt    zikk - zakk

   F                       C                 F/C  C  F/C  C       Am
e|----------------------------------|-----------------------------------|
H|-----------------------------5----|(5)------6---5---6---5-------------|
G|-2-------2-------2-----------5----|(5)------5---5---5---5-------5-----|
D|-3-------3-------3-----------5----|(5)------7---5---7---5-------7-----|
A|-3-------3-------3----------------|-----------------------------7-----|
E|-1-------1-------1-------8--------|-----------------------------5-----|
   *       *       *       *          *       *       *       *      
      
  (Am)                                Hb
e|----------------------------------|----------------------------------|
H|----------------------------------|----------------------------------|
G|(5)----------5---5-------5--------|-7---7---7---7---7---7---7--------|
D|(7)----------7---7-------7--------|-8---8---8---8---8---8---8--------|
A|(7)----------7---7-------7--------|-8---8---8---8---8---8---8--------|
E|(5)----------5---5-------5--------|-6---6---6---6---6---6---6--------|
   *       *       *       *          *       *       *       *         
             og  tusener   av        biler   halser  like bak?



REFRENG:
   F  Fsus    Fsus7    F      Fsus       Fsus7    F ---
e|----------------------------------|----------------------------------|
H|----------------------------------|----------------------------------|
G|-------------8--------------------|-----8---------------8------------|
D|-7---8-------8-------7-------8----|-----8-------7---8---8---8---7----|
A|-8---8---------------8-------8----|-------------8---8-------8---8----|
E|----------------------------------|----------------------------------|
   *       *       *       *          *       *       *       *         
          Jeg     går      i          ba - ne 
   
   
   Hb         Hbsus                   Hb         Hbsus
e|----------------------------------|----------------------------------|
H|----------------------------------|----------------------------------|
G|-----7-------8-----------8--------|-----7-------8-----------8--------|
D|----------------------------------|----------------------------------|
A|-8-----------8-----------8--------|-8-----------8-----------8--------|
E|-6-------6---6-------6---6--------|-6-------6---6-------6---6--------|
   *       *       *       *          *       *       *       *         
       nøster en  tynn    tråd,          en      med   langt hår.


   F  Fsus    Fsus7    F      Fsus       Fsus7    F ---
e|----------------------------------|----------------------------------|
H|----------------------------------|----------------------------------|
G|-------------8--------------------|-----8---------------8------------|
D|-7---8-------8-------7-------8----|-----8-------7---8---8---8---7----|
A|-8---8---------------8-------8----|-------------8---8-------8---8----|
E|----------------------------------|----------------------------------|
   *       *       *       *          *       *       *       *         
          Jeg     går      i          ba - ne    
   
   
   Hb         Hbsus                   Hb         Hbsus   
e|----------------------------------|----------------------------------|
H|----------------------------------|----------------------------------|
G|-----7-------8-----------8--------|-----7-------8--------------------|
D|----------------------------------|----------------------------------|
A|-8-----------8-----------8--------|-8-----------8--------------------|
E|-6-------6---6-------6---6--------|-6-------6---6-------6---4-/------|
   *       *       *       *          *       *       *       *     
         Du     er so  -  la        jeg    er          må -   nen
 
 
 
VERS 2:
F
 Tiden får rynker.
Am          G        C/G
 Den er lett som en fjær,
F
 blåser bort mens jeg venter,
Am          Hb
 lister seg ut mens jeg sover,

F - C

Am      Hb
  og vi fanger noen timer.



REFRENG:
F
 Jeg går i bane;
Hb
 nøster en tynn tråd, en med langt hår.
F
 Jeg går i bane.
Hb                     
 Du er sola - jeg er månen.


MELLOMSPILL: 
| F    | F - Hb | F    | C - Hb | F     | C     | C -   Csus4  | Hb   |


VERS 3:
F
 Hvor er du hen når du forsvinner?
Am            G        C/G
 Om det bare aldri ble morgen!
F
 Englefjes, ingen vinger.
Am          Hb
 Danser bak lukkede øyne.
 
F - C

Am                Hb
  Søndag morgen - natten gir meg ikke fred!
  
  

REFRENG:
F
 Jeg går i bane;
Hb
 nøster en tynn tråd, en med langt hår.
F
 Jeg går i bane.
Hb                     
 Du er sola - jeg er månen.
 
 
 
REFRENG:
F
 Jeg går i bane;
Hb
 nøster en tynn tråd, en med langt hår.
F
 Jeg går i bane.
Hb                     
 Du er sola - jeg er månen.
 
 
("Jeg går i bane" gjentas med samme akkordrekke)
INTRO:
    F 
e|-----------------------------------|----------------------------------|
H|------6---5-----------6---5--------|----------------------------------|
G|*-----5---5-----5-----5---5---5----|----------------------------------|
D|*---------------7-------------7----|----------------------------------|
A|--8--------------------------------|----------------------------------|
E|-----------------------------------|----------------------------------|
    *       *       *       *          *       *       *       *       

   Am7                                G          C/G
e|----------------------------------|-----------------------------------|
H|-------------1--------------------|-----0-------1---------------------|
G|---------0---0--------------------|-----0-------0--------------------*|
D|-----2-------2--------------------|-----0-------2--------------------*| 2x
A|-0--------------------------------|-----------------------------------|
E|----------------------------------|-3---------------------------------|
   *       *       *       *          *       *       *       *      
   
      
VERS 1:
   F 
e|----------------------------------|----------------------------------|
H|-----6---5-----------6---5--------|----------------------------------|
G|-----5---5---5-------5---5---5----|----------------------------------|
D|-------------7---------------7----|----------------------------------|
A|-8--------------------------------|----------------------------------|
E|----------------------------------|----------------------------------|
   *       *       *       *          *       *       *       *       
                   Bor det no`n i    osten på him'len
                                                                     
   Am7                                G          C/G
e|----------------------------------|----------------------------------|
H|-------------1--------------------|-----0-------1--------------------|
G|---------0---0--------------------|-----0-------0--------------------|
D|-----2-------2--------------------|-----0-------2--------------------| 2x
A|-0--------------------------------|----------------------------------|
E|----------------------------------|-3--------------------------------|
   *       *       *       *          *       *       *       *  
                          som ser    husene          fryse,

   F 
e|----------------------------------|----------------------------------|
H|-----6---5-----------6---5--------|----------------------------------|
G|-----5---5---5-------5---5---5----|----------------------------------|
D|-------------7---------------7----|----------------------------------|
A|-8--------------------------------|----------------------------------|
E|----------------------------------|----------------------------------|
   *       *       *       *          *       *       *       *       
                       som ser at   gatene er blinde                         
                                                   
   Am7                                Hb          
e|----------------------------------|----------------------------------|
H|-------------1--------------------|----------------------------------|
G|---------0---0--------------------|-7---7---7---7---7---7---7--------|
D|-----2-------2--------------------|-8---8---8---8---8---8---8--------| 
A|-0--------------------------------|-8---8---8---8---8---8---8--------|
E|----------------------------------|-6---6---6---6---6---6---6--------|
   *       *       *       *          *       *       *       *  
                         og streifer døgnet  rundt    zikk - zakk

   F                       C                 F/C  C  F/C  C       Am
e|----------------------------------|-----------------------------------|
H|-----------------------------5----|(5)------6---5---6---5-------------|
G|-2-------2-------2-----------5----|(5)------5---5---5---5-------5-----|
D|-3-------3-------3-----------5----|(5)------7---5---7---5-------7-----|
A|-3-------3-------3----------------|-----------------------------7-----|
E|-1-------1-------1-------8--------|-----------------------------5-----|
   *       *       *       *          *       *       *       *      
      
  (Am)                                Hb
e|----------------------------------|----------------------------------|
H|----------------------------------|----------------------------------|
G|(5)----------5---5-------5--------|-7---7---7---7---7---7---7--------|
D|(7)----------7---7-------7--------|-8---8---8---8---8---8---8--------|
A|(7)----------7---7-------7--------|-8---8---8---8---8---8---8--------|
E|(5)----------5---5-------5--------|-6---6---6---6---6---6---6--------|
   *       *       *       *          *       *       *       *         
             og  tusener   av        biler   halser  like bak?



REFRENG:
   F  Fsus    Fsus7    F      Fsus       Fsus7    F ---
e|----------------------------------|----------------------------------|
H|----------------------------------|----------------------------------|
G|-------------8--------------------|-----8---------------8------------|
D|-7---8-------8-------7-------8----|-----8-------7---8---8---8---7----|
A|-8---8---------------8-------8----|-------------8---8-------8---8----|
E|----------------------------------|----------------------------------|
   *       *       *       *          *       *       *       *         
          Jeg     går      i          ba - ne 
   
   
   Hb         Hbsus                   Hb         Hbsus
e|----------------------------------|----------------------------------|
H|----------------------------------|----------------------------------|
G|-----7-------8-----------8--------|-----7-------8-----------8--------|
D|----------------------------------|----------------------------------|
A|-8-----------8-----------8--------|-8-----------8-----------8--------|
E|-6-------6---6-------6---6--------|-6-------6---6-------6---6--------|
   *       *       *       *          *       *       *       *         
       nøster en  tynn    tråd,          en      med   langt hår.


   F  Fsus    Fsus7    F      Fsus       Fsus7    F ---
e|----------------------------------|----------------------------------|
H|----------------------------------|----------------------------------|
G|-------------8--------------------|-----8---------------8------------|
D|-7---8-------8-------7-------8----|-----8-------7---8---8---8---7----|
A|-8---8---------------8-------8----|-------------8---8-------8---8----|
E|----------------------------------|----------------------------------|
   *       *       *       *          *       *       *       *         
          Jeg     går      i          ba - ne    
   
   
   Hb         Hbsus                   Hb         Hbsus   
e|----------------------------------|----------------------------------|
H|----------------------------------|----------------------------------|
G|-----7-------8-----------8--------|-----7-------8--------------------|
D|----------------------------------|----------------------------------|
A|-8-----------8-----------8--------|-8-----------8--------------------|
E|-6-------6---6-------6---6--------|-6-------6---6-------6---4-/------|
   *       *       *       *          *       *       *       *     
         Du     er so  -  la        jeg    er          må -   nen
 
 
 
VERS 2:
F
 Tiden får rynker.
Am          G        C/G
 Den er lett som en fjær,
F
 blåser bort mens jeg venter,
Am          Hb
 lister seg ut mens jeg sover,

F - C

Am      Hb
  og vi fanger noen timer.



REFRENG:
F
 Jeg går i bane;
Hb
 nøster en tynn tråd, en med langt hår.
F
 Jeg går i bane.
Hb                     
 Du er sola - jeg er månen.


MELLOMSPILL: 
| F    | F - Hb | F    | C - Hb | F     | C     | C -   Csus4  | Hb   |


VERS 3:
F
 Hvor er du hen når du forsvinner?
Am            G        C/G
 Om det bare aldri ble morgen!
F
 Englefjes, ingen vinger.
Am          Hb
 Danser bak lukkede øyne.
 
F - C

Am                Hb
  Søndag morgen - natten gir meg ikke fred!
  
  

REFRENG:
F
 Jeg går i bane;
Hb
 nøster en tynn tråd, en med langt hår.
F
 Jeg går i bane.
Hb                     
 Du er sola - jeg er månen.
 
 
 
REFRENG:
F
 Jeg går i bane;
Hb
 nøster en tynn tråd, en med langt hår.
F
 Jeg går i bane.
Hb                     
 Du er sola - jeg er månen.
 
 
("Jeg går i bane" gjentas med samme akkordrekke)



Kjøp abonnement og få tilgang til alt innhold!

Velg abonnement:



Medlemsfordeler:

  • Tilgang til alle kurs og videoleksjoner i alle sjangre og nivåer.
  • Strukturerte, pedagogisk oppbygde kurs i forskjellige emner.
  • Stort bibliotek med grep, skala og backingtracks.