Wild Thing - The Troggs

 Gratis  


Leksjonsinfo


  • Artist/band: The Troggs
  • Lærer: Thomas Larsen
  • Sjanger: Rock
  • Instrument: Akustisk
  • Nivå:
  • Lastet opp: 10.08-17
  • Lengde: 4.43 min.
×

Denne tjenesten tilbys av onlinegitar.no. Musikken er gjengitt med tillatelse fra TONO. Uautorisert lenking, videreføring eller kopiering er ulovlig.


BESIFRING
GREP
RELATERT
BLI MEDLEM

  Åpne i ny fane

[Ps: man kan også spille Wild Thing med helt ordinære grep: A-D-E]


INTRO/MELLOMSPILL: ||:A5 - D5 - E5 - D5:||


A5       D5 E5 D5           A5        D5 E5
Wild thing. . . you make my heart sing...
D5       A5       D5 
You make everything
     E5    D5
Groovy
       A5        D5  E5
I said wild thing...


e|---------------------------|
B|---------------------------|
G|---------------------------|
D|-------2-------2-----------|
A|-------0-------0-----------|
E|--b3-------b3--------------|
                      Wild thing, I think I love you      

e|---------------------------|
B|---------------------------|
G|---------------------------|
D|-------2-------2-----------|
A|-------0-------0-----------|
E|--b3-------b3--------------|
                      But I wanna know for sure       

e|---------------------------|
B|---------------------------|
G|---------------------------|
D|-------2-------2-----------|
A|-------0-------0-----------|
E|--b3-------b3--------------|
                      Come on, hold me tight  

e|---------------------------|
B|---------------------------|
G|---------------------------|
D|-------2-------2-----------|
A|-------0-------0-----------|
E|--b3-------b3--------------|
                      I love you



A5       D5 E5 D5           A5        D5 E5
Wild thing. . . you make my heart sing...
D5       A5       D5 
You make everything
     E5    D5
Groovy
       A5        D5  E5
I said wild thing...

                              
e|---------------------------|
B|---------------------------|
G|---------------------------|
D|-------2-------2-----------|
A|-------0-------0-----------|
E|--b3-------b3--------------|
                      Wild thing, I think I love you      

e|---------------------------|
B|---------------------------|
G|---------------------------|
D|-------2-------2-----------|
A|-------0-------0-----------|
E|--b3-------b3--------------|
                      But I wanna know for sure       

e|---------------------------|
B|---------------------------|
G|---------------------------|
D|-------2-------2-----------|
A|-------0-------0-----------|
E|--b3-------b3--------------|
                      Come on, hold me tight  

e|---------------------------|
B|---------------------------|
G|---------------------------|
D|-------2-------2-----------|
A|-------0-------0-----------|
E|--b3-------b3--------------|
                      You move me


A5       D5 E5 D5           A5        D5 E5
Wild thing. . . you make my heart sing...
D5       A5       D5 
You make everything
    E5    D5
Groovy       
       A5        D5 E5 
I said wild thing...
              A5        D5 E5
C'mon, c'mon, Wild Thing
                    A5        D5 E5
Shake it, shake it, Wild Thing...     [fades ut]
[Ps: man kan også spille Wild Thing med helt ordinære grep: A-D-E]


INTRO/MELLOMSPILL: ||:A5 - D5 - E5 - D5:||


A5       D5 E5 D5           A5        D5 E5
Wild thing. . . you make my heart sing...
D5       A5       D5 
You make everything
     E5    D5
Groovy
       A5        D5  E5
I said wild thing...


e|---------------------------|
B|---------------------------|
G|---------------------------|
D|-------2-------2-----------|
A|-------0-------0-----------|
E|--b3-------b3--------------|
                      Wild thing, I think I love you      

e|---------------------------|
B|---------------------------|
G|---------------------------|
D|-------2-------2-----------|
A|-------0-------0-----------|
E|--b3-------b3--------------|
                      But I wanna know for sure       

e|---------------------------|
B|---------------------------|
G|---------------------------|
D|-------2-------2-----------|
A|-------0-------0-----------|
E|--b3-------b3--------------|
                      Come on, hold me tight  

e|---------------------------|
B|---------------------------|
G|---------------------------|
D|-------2-------2-----------|
A|-------0-------0-----------|
E|--b3-------b3--------------|
                      I love you



A5       D5 E5 D5           A5        D5 E5
Wild thing. . . you make my heart sing...
D5       A5       D5 
You make everything
     E5    D5
Groovy
       A5        D5  E5
I said wild thing...

                              
e|---------------------------|
B|---------------------------|
G|---------------------------|
D|-------2-------2-----------|
A|-------0-------0-----------|
E|--b3-------b3--------------|
                      Wild thing, I think I love you      

e|---------------------------|
B|---------------------------|
G|---------------------------|
D|-------2-------2-----------|
A|-------0-------0-----------|
E|--b3-------b3--------------|
                      But I wanna know for sure       

e|---------------------------|
B|---------------------------|
G|---------------------------|
D|-------2-------2-----------|
A|-------0-------0-----------|
E|--b3-------b3--------------|
                      Come on, hold me tight  

e|---------------------------|
B|---------------------------|
G|---------------------------|
D|-------2-------2-----------|
A|-------0-------0-----------|
E|--b3-------b3--------------|
                      You move me


A5       D5 E5 D5           A5        D5 E5
Wild thing. . . you make my heart sing...
D5       A5       D5 
You make everything
    E5    D5
Groovy       
       A5        D5 E5 
I said wild thing...
              A5        D5 E5
C'mon, c'mon, Wild Thing
                    A5        D5 E5
Shake it, shake it, Wild Thing...     [fades ut]


Om grepsdiagrammet


Vi bruker akkorden D dur som eksempel:

  1. De vertikale strekene viser gitarens 6 strenger. Streken til venstre er gitarens dypeste streng.
  2. De horisontale strekene viser gitarens bånd. I utgangspunktet vises gitarhalsens 5 første bånd, men hvis det er grep som tas høyere opp på gitarhalsen vil det på venstre side av diagrammet stå hvilket bånd man kan orientere seg ut fra.
  3. De svarte prikkene viser hvor vi skal legge fingrene på gitarhalsen, og tallene inni prikkene viser hvilke fingre vi skal bruke for å ta grepet.
  4. Bokstavene D A D F# forteller navnet på notene på strengene som spilles.
  5. Øverst på diagrammet ser vi symbolene 'O' og 'X'.
    • O = strengen skal spilles på.
    • X = strengen skal IKKE spilles på.
  6. Til venstre ser vi tallene 1, 2, 3, 4 og 5. Disse viser hvilket bånd som er utgangspunkt for grepet.

D

1.

2.

3.

4.

5.

  • X
  • X
  • O
  •  
  •  
  •  
  • D
  • A
  • D
  • F#




×

A 5

1.

2.

3.

4.

5.

  • X
  • O
  •  
  •  
  • X
  • X
  • A
  • E
  • A

D 5

5.

6.

7.

8.

9.

  • X
  •  
  •  
  •  
  • X
  • X
  • D
  • A
  • D

E 5

7.

8.

9.

10.

11.

  • X
  •  
  •  
  •  
  • X
  • X
  • E
  • H
  • E

A

1.

2.

3.

4.

5.

  • X
  • O
  •  
  •  
  •  
  • O
  • A
  • E
  • A
  • C#
  • E

D

1.

2.

3.

4.

5.

  • X
  • X
  • O
  •  
  •  
  •  
  • D
  • A
  • D
  • F#

E

1.

2.

3.

4.

5.

  • O
  •  
  •  
  •  
  • O
  • O
  • E
  • H
  • E
  • G#
  • H
  • E

Kjøp abonnement og få tilgang til alt innhold!

Velg abonnement:



Medlemsfordeler:

  • Tilgang til alle kurs og videoleksjoner i alle sjangre og nivåer.
  • Strukturerte, pedagogisk oppbygde kurs i forskjellige emner.
  • Stort bibliotek med grep, skala og backingtracks.