Videoleksjoner

ST. ANNE`S REEL

 Lærer: Magnus Wiik  |   Viser-folk20.11-19

Loading the player...

  Gratis Nivå: 6/10

VIDEOINFO

  • Video: St. Anne`s Reel
  • Lærer: Magnus Wiik
  • Instrument: Mandolin
  • Nivå: Middels 6/10
  • Lengde: 19.18 min.
  • Sjanger: Viser-folk
  • Opplastet: 20.11.2019

(Denne tjenesten tilbys av onlinegitar.no. Musikken er gjengitt med tillatelse fra TONO. Uautorisert lenking, videreføring eller kopiering er ulovlig.)

×
    • Magnus Wiik

    • Bluegrass, country
    • Magnus spiller gitar, banjo, mandolin og dobro. Blant annet. Han er en svært allsidig gitarist med bakgrunn fra metal og jazz, men nå dypt forelsket i irsk folkemusikk og bluegrass.

×


 

TEMA




BESIFRING

TABS

RELATERT

LÆRER

TAITORS (Opptakt):
E|-----------------------------------|----------------------------------|
A|--5---5-5-5---5-5-5---5-5-5---5-5--|-5---5-5-5---5-5-5---5-5-5---5----|
D|----------------------0-0-0---0-0--|-0---0-0-0---0-0-0---0-0-0---0----|
G|-----------------------------------|----------------------------------|
    *       *       *       *          *       *       *       *      



A-DEL:
E|--2-----------5---2---0------------|----------------------------------|
A|*-------------------------5---2----|-0h2p0-------0-------0-------0----|
D|*----------------------------------|---------4-------0-------4--------|
G|-----------------------------------|----------------------------------|
    *       *       *       *          *       *       *       *      


E|-----------------------------------|----------------------------------|
A|--2---0-----------------------2----|-0-h-2---0---------------0---5----|
D|----------5-----------4---5--------|-------------4---0---4------------|
G|------------------0----------------|----------------------------------|
    *       *       *       *          *       *       *       *      


E|--0h2---------5---2---0------------|----------------------------------|
A|--0---------------0-------5---2----|-0h2p0-------0-------0-------0----|
D|----------0---------------0--------|-0-------4-------0-------4--------|
G|-----------------------------------|----------------------------------|
    *       *       *       *          *       *       *       *      

                                      1.gang
E|------------------------------0----|----------------------------------|
A|--2-------2---5---4---0---4--------|-5-------5---4---5-----------0---*| Repeter
D|------5-----------2----------------|-4---------------4-------0-------*|
G|-----------------------------------|----------------------------------|
    *       *       *       *          *       *       *       *      

   2.gang
E|--------------------------0--------|
A|--5-------5---4---5----------------|
D|--4---------------4----------------|
G|-----------------------------------|
    *       *       *       *           
   


B-DEL:
E|--2---0---2---3---2---0-------2----|-5-------3-------3-------3---2----|
A|*-0-----------------------5--------|-2---------------2-------2--------|
D|*----------------------------------|----------------------------------|
G|-----------------------------------|----------------------------------|
    *       *       *       *          *       *       *       *      


E|--0---------------------------0----|-7-------5-------5-------5---3----|
A|------5---4---2---0---2---4--------|-4---------------4-------4--------|
D|-----------------------------------|----------------------------------|
G|-----------------------------------|----------------------------------|
    *       *       *       *          *       *       *       *      


E|--2---0---2---5---2---0-------2----|-5-------3-------3-------3---2----|
A|--0-----------------------5--------|-2---------------2-------2--------|
D|-----------------------------------|----------------------------------|
G|-----------------------------------|----------------------------------|
    *       *       *       *          *       *       *       *   
   
                                      1.gang
E|--0--------------------------------|----------------------------------|
A|------5---4---2---0---2---4---0----|-5-----------5-------5------(5)--*|
D|-----------------------------------|-4-------4-------4-------4-------*|
G|-----------------------------------|----------------------------------|
    *       *       *       *          *       *       *       *    
      
   2.gang
E|-----------------------------------|
A|--5-------5-------5----------------|
D|--4-------4-------4----------------|
G|-----------------------------------|
    *       *       *       *         
   

St. Anne`s Reel


TAITORS (Opptakt):
E|-----------------------------------|----------------------------------|
A|--5---5-5-5---5-5-5---5-5-5---5-5--|-5---5-5-5---5-5-5---5-5-5---5----|
D|----------------------0-0-0---0-0--|-0---0-0-0---0-0-0---0-0-0---0----|
G|-----------------------------------|----------------------------------|
    *       *       *       *          *       *       *       *      



A-DEL:
E|--2-----------5---2---0------------|----------------------------------|
A|*-------------------------5---2----|-0h2p0-------0-------0-------0----|
D|*----------------------------------|---------4-------0-------4--------|
G|-----------------------------------|----------------------------------|
    *       *       *       *          *       *       *       *      


E|-----------------------------------|----------------------------------|
A|--2---0-----------------------2----|-0-h-2---0---------------0---5----|
D|----------5-----------4---5--------|-------------4---0---4------------|
G|------------------0----------------|----------------------------------|
    *       *       *       *          *       *       *       *      


E|--0h2---------5---2---0------------|----------------------------------|
A|--0---------------0-------5---2----|-0h2p0-------0-------0-------0----|
D|----------0---------------0--------|-0-------4-------0-------4--------|
G|-----------------------------------|----------------------------------|
    *       *       *       *          *       *       *       *      

                                      1.gang
E|------------------------------0----|----------------------------------|
A|--2-------2---5---4---0---4--------|-5-------5---4---5-----------0---*| Repeter
D|------5-----------2----------------|-4---------------4-------0-------*|
G|-----------------------------------|----------------------------------|
    *       *       *       *          *       *       *       *      

   2.gang
E|--------------------------0--------|
A|--5-------5---4---5----------------|
D|--4---------------4----------------|
G|-----------------------------------|
    *       *       *       *           
   


B-DEL:
E|--2---0---2---3---2---0-------2----|-5-------3-------3-------3---2----|
A|*-0-----------------------5--------|-2---------------2-------2--------|
D|*----------------------------------|----------------------------------|
G|-----------------------------------|----------------------------------|
    *       *       *       *          *       *       *       *      


E|--0---------------------------0----|-7-------5-------5-------5---3----|
A|------5---4---2---0---2---4--------|-4---------------4-------4--------|
D|-----------------------------------|----------------------------------|
G|-----------------------------------|----------------------------------|
    *       *       *       *          *       *       *       *      


E|--2---0---2---5---2---0-------2----|-5-------3-------3-------3---2----|
A|--0-----------------------5--------|-2---------------2-------2--------|
D|-----------------------------------|----------------------------------|
G|-----------------------------------|----------------------------------|
    *       *       *       *          *       *       *       *   
   
                                      1.gang
E|--0--------------------------------|----------------------------------|
A|------5---4---2---0---2---4---0----|-5-----------5-------5------(5)--*|
D|-----------------------------------|-4-------4-------4-------4-------*|
G|-----------------------------------|----------------------------------|
    *       *       *       *          *       *       *       *    
      
   2.gang
E|-----------------------------------|
A|--5-------5-------5----------------|
D|--4-------4-------4----------------|
G|-----------------------------------|
    *       *       *       *         
   
×