Kurs  /  Vise & Folk  /  Fiddle-tunes på mandolin  /

Cripple Creek melodi


BESIFRING
BACKING

  Åpne i ny fane

MELODI:


A-del:
    G                          C           G
E|--3-----3------------------|-------0------------------|
A|*-------------5-----2------|-3-----------5------------|
D|*--------------------------|--------------------------|
G|---------------------------|--------------------------|
    *     *     *     *        *     *     *     *      

    G                          D           G
E|---------------------------|--------------------------|
A|--2-----2-----0------------|-------------------------*|
D|--------------------5------|-0-----2-----5-----------*|
G|---------------------------|--------------------------|
    *     *     *     *        *     *     *     *      


B-del:
    G                          G
E|---------------------------|--------------------------|
A|*-2-----2-----0------------|-2-----2------------------|
D|*-------------------5------|-------------0------------|
G|---------------------------|--------------------------|
    *     *     *     *        *     *     *     *      

    G                          D           G
E|---------------------------|--------------------------|
A|--2-----2-----0------------|-------------------------*|
D|--------------------5------|-0-----2-----5-----------*|
G|---------------------------|--------------------------|
    *     *     *     *        *     *     *     *     
  
 

VARIASJON:


A-del:
    G                          C           G
E|-/3-----3--3---------------|-------0------------------|
A|*-------------5-----2------|-3--5-----3--5------------|
D|*--------------------------|--------------------------|
G|---------------------------|--------------------------|
    *     *     *     *        *     *     *     *      

    G                          D           G
E|---------------------------|--------------------------|
A|-/2-----2--5--2--0---------|----------0--------------*|
D|--------------------5--2---|-0--2--4-----5-----------*|
G|---------------------------|--------------------------|
    *     *     *     *        *     *     *     *      


B-del:
    G                          G
E|---------------------------|--------------------------|
A|*/2-----2--2--0------------|-2--0---------------------|
D|*-------------------5------|-------5--2--0------------|
G|---------------------------|--------------------------|
    *     *     *     *        *     *     *     *      

                              1.GANG:
    G                          D           G
E|---------------------------|--------------------------|
A|-/2-----2--2--0------------|-------------------------*|
D|-----------------5--2------|-0--2--4-----5-----------*|
G|---------------------------|-------------------0------|
    *     *     *     *        *     *     *     *     

  2.GANG:
    D           G
E|---------------------------||
A|-----------0---------------||
D|--0--2--4-----5------------||   
G|---------------------------||
 


    
TEKST & BESIFRING:

A-del:
G               C         G
I got a gal and she loves me
G                 D         G
She’s as sweet as sweet can be
G                 C    G
She’s got eyes of baby blue
G                  D            G
Makes my gun shoot straight and true


B-del:
G                       
Goin up cripple creek, goin in a run
G                      D             G
Goin up cripple creek, have a little fun
G                    
Goin up cripple creek, goin in a whirl
G                        D       G
Goin up cripple creek to find my girl
MELODI:


A-del:
    G                          C           G
E|--3-----3------------------|-------0------------------|
A|*-------------5-----2------|-3-----------5------------|
D|*--------------------------|--------------------------|
G|---------------------------|--------------------------|
    *     *     *     *        *     *     *     *      

    G                          D           G
E|---------------------------|--------------------------|
A|--2-----2-----0------------|-------------------------*|
D|--------------------5------|-0-----2-----5-----------*|
G|---------------------------|--------------------------|
    *     *     *     *        *     *     *     *      


B-del:
    G                          G
E|---------------------------|--------------------------|
A|*-2-----2-----0------------|-2-----2------------------|
D|*-------------------5------|-------------0------------|
G|---------------------------|--------------------------|
    *     *     *     *        *     *     *     *      

    G                          D           G
E|---------------------------|--------------------------|
A|--2-----2-----0------------|-------------------------*|
D|--------------------5------|-0-----2-----5-----------*|
G|---------------------------|--------------------------|
    *     *     *     *        *     *     *     *     
  
 

VARIASJON:


A-del:
    G                          C           G
E|-/3-----3--3---------------|-------0------------------|
A|*-------------5-----2------|-3--5-----3--5------------|
D|*--------------------------|--------------------------|
G|---------------------------|--------------------------|
    *     *     *     *        *     *     *     *      

    G                          D           G
E|---------------------------|--------------------------|
A|-/2-----2--5--2--0---------|----------0--------------*|
D|--------------------5--2---|-0--2--4-----5-----------*|
G|---------------------------|--------------------------|
    *     *     *     *        *     *     *     *      


B-del:
    G                          G
E|---------------------------|--------------------------|
A|*/2-----2--2--0------------|-2--0---------------------|
D|*-------------------5------|-------5--2--0------------|
G|---------------------------|--------------------------|
    *     *     *     *        *     *     *     *      

                              1.GANG:
    G                          D           G
E|---------------------------|--------------------------|
A|-/2-----2--2--0------------|-------------------------*|
D|-----------------5--2------|-0--2--4-----5-----------*|
G|---------------------------|-------------------0------|
    *     *     *     *        *     *     *     *     

  2.GANG:
    D           G
E|---------------------------||
A|-----------0---------------||
D|--0--2--4-----5------------||   
G|---------------------------||
 


    
TEKST & BESIFRING:

A-del:
G               C         G
I got a gal and she loves me
G                 D         G
She’s as sweet as sweet can be
G                 C    G
She’s got eyes of baby blue
G                  D            G
Makes my gun shoot straight and true


B-del:
G                       
Goin up cripple creek, goin in a run
G                      D             G
Goin up cripple creek, have a little fun
G                    
Goin up cripple creek, goin in a whirl
G                        D       G
Goin up cripple creek to find my girl



 


Om steg 2:

Gratis steg

Den første melodien i kurset er en sang fra Appalachia, fjellområde øst i USA. I dette området vokste mye av folkemusikken og bluegrassen fram på 1800- og 1900-tallet.

Cripple Creek spilles ofte instrumentalt, men kan også framføres med sang. Teksten er lagt til nederst på tabulaturet.

Prøv gjerne å spille melodien sammen med backingtrackene som ligger vedlagt under videoen.


FERDIG, GÅ VIDERE

Lærer: Peder Åmland


Velg abonnement:



Medlemsfordeler:

  • Tilgang til alle kurs og videoleksjoner i alle sjangre og nivåer.
  • Strukturerte, pedagogisk oppbygde kurs i forskjellige emner.
  • Stort bibliotek med grep, skala og backingtracks.