Kurs  /  Jazz  /  Jazz Impro  /

2-5-1 akkordprogresjon


BESIFRING

  Åpne i ny fane

C dur skala 
   
   I   II  III IV  V   VI  VII      I   II  III IV  V   VI  VII
e|--------------------------------|--------------------------------|
H|--------------------------------|--------------------------------|
G|---------------------2---4------|--------------------------------|
D|---------2---3---5--------------|---------------------7---9------|
A|-3---5--------------------------|---------7---8---10-------------|
E|--------------------------------|-8---10-------------------------|
   C   D   E   F   G   A   H        C   D   E   F   G   A   H



Cmaj7 (fra 1.trinn i C-durskalaen)
 
   I       III     V       VII
e|--------------------------------|
H|--------------------------------|
G|---------------------2---4------|
D|---------2---3---5--------------|
A|-3---5--------------------------|
E|--------------------------------|
   C       E       G       H


Dm7 (fra 2.trinn i C-durskalaen)                      

   I       III     V       VII
e|--------------------------------|
H|--------------------------------|
G|-----------------2---4---5------|
D|-----2---3---5------------------|
A|-5------------------------------|
E|--------------------------------|
   D       F       A       C


G7 (fra 5.trinn i C-durskalaen)

   I       III     V       VII
e|--------------------------------|
H|--------------------------------|
G|--------------------------------|
D|---------------------2---3------|
A|---------2---3---5--------------|
E|-3---5--------------------------|
   G       H       D       F
C dur skala 
   
   I   II  III IV  V   VI  VII      I   II  III IV  V   VI  VII
e|--------------------------------|--------------------------------|
H|--------------------------------|--------------------------------|
G|---------------------2---4------|--------------------------------|
D|---------2---3---5--------------|---------------------7---9------|
A|-3---5--------------------------|---------7---8---10-------------|
E|--------------------------------|-8---10-------------------------|
   C   D   E   F   G   A   H        C   D   E   F   G   A   H



Cmaj7 (fra 1.trinn i C-durskalaen)
 
   I       III     V       VII
e|--------------------------------|
H|--------------------------------|
G|---------------------2---4------|
D|---------2---3---5--------------|
A|-3---5--------------------------|
E|--------------------------------|
   C       E       G       H


Dm7 (fra 2.trinn i C-durskalaen)                      

   I       III     V       VII
e|--------------------------------|
H|--------------------------------|
G|-----------------2---4---5------|
D|-----2---3---5------------------|
A|-5------------------------------|
E|--------------------------------|
   D       F       A       C


G7 (fra 5.trinn i C-durskalaen)

   I       III     V       VII
e|--------------------------------|
H|--------------------------------|
G|--------------------------------|
D|---------------------2---3------|
A|---------2---3---5--------------|
E|-3---5--------------------------|
   G       H       D       F




Om steg 2:

Gratis steg

Vi starter med et uttrykk som er mye brukt i jazzmiljøet: "2-5-1". Lett å bli forvirret og lure på hva det betyr for noe, men det handler om rekkefølge av akkorder, eller akkordprogresjon om man vil.

Om vi tar utgangspunkt i C-durskalaen vil vi se at:

  • På andre trinn (2) ligger D.
  • På femte trinn (5) ligger G.
  • På første trinn (1) ligger C.
  • Ved å bygge akkorder på disse får vi Dm7(2), G7(5) og Cmaj7(1) i en 2-5-1 progresjon i C.

FERDIG, GÅ VIDERE

Lærer: Bård Helgerud


Velg abonnement:



Medlemsfordeler:

  • Tilgang til alle kurs og videoleksjoner i alle sjangre og nivåer.
  • Strukturerte, pedagogisk oppbygde kurs i forskjellige emner.
  • Stort bibliotek med grep, skala og backingtracks.