A moll skala



SKALA

INFO

BACKING

A moll
0.pos.

1.

2.

3.

4.

5.

6.

7.

8.

9.

10.

11.

12.

  • E
  • A
  • D
  • G
  • H
  • E



A moll 0. posisjon

OPPOVER:
E|--------------------------------------------0--1--3--5--|
H|-----------------------------------0--1--3--------------|
G|-----------------------------0--2-----------------------|
D|--------------------0--2--3-----------------------------|
A|-----------0--2--3--------------------------------------|
E|--0--1--3-----------------------------------------------|


NEDOVER:
E|--5--3--1--0--------------------------------------------|
H|--------------3--1--0-----------------------------------|
G|-----------------------2--0-----------------------------|
D|-----------------------------3--2--0--------------------|
A|--------------------------------------3--2--0-----------|
E|-----------------------------------------------3--1--0--|
×

A moll
2.pos.

1.

2.

3.

4.

5.

6.

7.

8.

9.

10.

11.

12.

  • E
  • A
  • D
  • G
  • H
  • E



A moll 2. posisjon

OPPOVER:
E|--------------------------------------------3--5--|
H|-----------------------------------3--5--6--------|
G|--------------------------2--4--5-----------------|
D|-----------------2--3--5--------------------------|
A|--------2--3--5-----------------------------------|
E|--3--5--------------------------------------------|


NEDOVER:
E|--5--3--------------------------------------------|
H|--------6--5--3-----------------------------------|
G|-----------------5--4--2--------------------------|
D|--------------------------5--3--2-----------------|
A|-----------------------------------5--3--2--------|
E|--------------------------------------------5--3--|
×

A moll
4.pos.

1.

2.

3.

4.

5.

6.

7.

8.

9.

10.

11.

12.

  • E
  • A
  • D
  • G
  • H
  • E



A moll 4. posisjon

OPPOVER:
E|--------------------------------------------5--7--8--|
H|-----------------------------------5--6--8-----------|
G|--------------------------4--5--7--------------------|
D|--------------------5--7-----------------------------|
A|-----------5--7--8-----------------------------------|
E|--5--7--8--------------------------------------------|


NEDOVER:
E|--8--7--5--------------------------------------------|
H|-----------8--6--5-----------------------------------|
G|--------------------7--5--4--------------------------|
D|-----------------------------7--5--------------------|
A|-----------------------------------8--7--5-----------|
E|--------------------------------------------8--7--5--|
×

A moll
7.pos.

1.

2.

3.

4.

5.

6.

7.

8.

9.

10.

11.

12.

  • E
  • A
  • D
  • G
  • H
  • E



A moll 7. posisjon

OPPOVER:
E|----------------------------------------------7--8--10--12--|
H|---------------------------------------8--10----------------|
G|-----------------------------7--9--10-----------------------|
D|-------------------7--9--10---------------------------------|
A|---------7--8--10-------------------------------------------|
E|--8--10-----------------------------------------------------|


NEDOVER:
E|--12--10--8--7----------------------------------------------|
H|----------------10--8---------------------------------------|
G|-----------------------10--9--7-----------------------------|
D|---------------------------------10--9--7-------------------|
A|-------------------------------------------10--8--7---------|
E|-----------------------------------------------------10--8--|
×

A moll
9.pos.

9.

10.

11.

12.

13.

14.

15.

16.

17.

18.

19.

20.

  • E
  • A
  • D
  • G
  • H
  • E



A moll 9. posisjon

OPPOVER:
E|--------------------------------------------------------10--12--13--|
H|--------------------------------------------10--12--13--------------|
G|---------------------------------9--10--12--------------------------|
D|----------------------9--10--12-------------------------------------|
A|--------------10--12------------------------------------------------|
E|--10--12--13--------------------------------------------------------|


NEDOVER:
E|--13--12--10--------------------------------------------------------|
H|--------------13--12--10--------------------------------------------|
G|--------------------------12--10--9---------------------------------|
D|-------------------------------------12--10--9----------------------|
A|------------------------------------------------12--10--------------|
E|--------------------------------------------------------13--12--10--|
×

A moll
12.pos.

9.

10.

11.

12.

13.

14.

15.

16.

17.

18.

19.

20.

  • E
  • A
  • D
  • G
  • H
  • E



A moll 12. posisjon

OPPOVER:
E|----------------------------------------------------------12--13--15--17--|
H|----------------------------------------------12--13--15------------------|
G|--------------------------------------12--14------------------------------|
D|--------------------------12--14--15--------------------------------------|
A|--------------12--14--15--------------------------------------------------|
E|--12--13--15--------------------------------------------------------------|


NEDOVER:
E|--17--15--13--12----------------------------------------------------------|
H|------------------15--13--12----------------------------------------------|
G|------------------------------14--12--------------------------------------|
D|--------------------------------------15--14--12--------------------------|
A|--------------------------------------------------15--14--12--------------|
E|--------------------------------------------------------------15--13--12--|
×

A moll
14.pos.

9.

10.

11.

12.

13.

14.

15.

16.

17.

18.

19.

20.

  • E
  • A
  • D
  • G
  • H
  • E



A moll 14. posisjon

OPPOVER:
E|----------------------------------------------------------15--17--19--20--|
H|----------------------------------------------15--17--18------------------|
G|----------------------------------14--16--17------------------------------|
D|----------------------14--15--17------------------------------------------|
A|----------14--15--17------------------------------------------------------|
E|--15--17------------------------------------------------------------------|


NEDOVER:
E|--20--19--17--15----------------------------------------------------------|
H|------------------18--17--15----------------------------------------------|
G|------------------------------17--16--14----------------------------------|
D|------------------------------------------17--15--14----------------------|
A|------------------------------------------------------17--15--14----------|
E|------------------------------------------------------------------17--15--|
×

Informasjon som skalaen:


Skala

A moll

Grunntone

A

Skalatrinn

1 + 1/2 + 1 + 1 + 1/2 + 1

Skalatoner

A - H - C - D - E - F - G

Om
Moll
skala

Denne skalaen består av 7 toner, og klinger nok velkjent for mange. Til forskjell fra durskalaen har denne skalaen lavt tredje trinn, det vil si at det er 3 bånd fra den første tonen til den tredje tonen. Dette kalles for en moll-ters i musikkteorien.

Anvendelse

Her er det mange muligheter og bruksområdet spenner fra pop og jazz til metal og viser. Har du en sang du vil spille solo over som begynner med A-moll akkorden vil A-mollskala i de aller fleste tilfeller passe meget bra.

Prøv å improvisere sammen med et backingtrack:


AM-GREPET


AM-PENTATON IMPRO


IRON LADY


JAZZ I AM


SPACE TRIP