A kromatisk skala



SKALA

INFO

A kromatisk
1.pos.

1.

2.

3.

4.

5.

6.

7.

8.

9.

10.

11.

12.

  • E
  • A
  • D
  • G
  • H
  • E



A kromatisk 1. posisjon

OPPOVER:
E|--------------------------------------------------------------1--2--3--4--5--|
H|--------------------------------------------------2--3--4--5-----------------|
G|--------------------------------------2--3--4--5-----------------------------|
D|--------------------------3--4--5--6-----------------------------------------|
A|--------------4--5--6--7-----------------------------------------------------|
E|--5--6--7--8-----------------------------------------------------------------|


NEDOVER:
E|--5--4--3--2--1--------------------------------------------------------------|
H|-----------------5--4--3--2--------------------------------------------------|
G|-----------------------------5--4--3--2--------------------------------------|
D|-----------------------------------------6--5--4--3--------------------------|
A|-----------------------------------------------------7--6--5--4--------------|
E|-----------------------------------------------------------------8--7--6--5--|
×

A kromatisk
4.pos.

1.

2.

3.

4.

5.

6.

7.

8.

9.

10.

11.

12.

  • E
  • A
  • D
  • G
  • H
  • E



A kromatisk 4. posisjon

OPPOVER:
E|--------------------------------------------------------------------------4--5--6--7--8--|
H|--------------------------------------------------------------5--6--7--8-----------------|
G|-----------------------------------------------4--5--6--7--8-----------------------------|
D|--------------------------------4--5--6--7--8--------------------------------------------|
A|--------------4--5--6--7--8-----------------------------------------------------------|
E|--5--6--7--8-----------------------------------------------------------------------------|


NEDOVER:
E|--8--7--6--5--4--------------------------------------------------------------------------|
H|-----------------8--7--6--5--------------------------------------------------------------|
G|-----------------------------8--7--6--5--4-----------------------------------------------|
D|--------------------------------------------8--7--6--5--4--------------------------------|
A|-----------------------------------------------------------8--7--6--5--4-----------------|
E|--------------------------------------------------------------------------8--7--6--5-----|
×

A kromatisk
6.pos.

1.

2.

3.

4.

5.

6.

7.

8.

9.

10.

11.

12.

  • E
  • A
  • D
  • G
  • H
  • E



A kromatisk 6. posisjon

OPPOVER:
E|----------------------------------------------------------------6--7--8--9--|
H|---------------------------------------------------7--8--9--10--------------|
G|--------------------------------------7--8--9--10---------------------------|
D|------------------------8--9--10--11----------------------------------------|
A|--9--10--11--12------------------------------------------------------|
E|----------------------------------------------------------------------------|


NEDOVER:
E|--9--8--7--6----------------------------------------------------------------|
H|--------------10--9--8--7---------------------------------------------------|
G|---------------------------10--9--8--7--------------------------------------|
D|----------------------------------------11--10--9--8------------------------|
A|------------------------------------------------------12--11--10--9--------|
E|----------------------------------------------------------------------------|
×

A kromatisk
11.pos.

9.

10.

11.

12.

13.

14.

15.

16.

17.

18.

19.

20.

  • E
  • A
  • D
  • G
  • H
  • E



A kromatisk 11. posisjon

OPPOVER:
E|--------------------------------------------------------------------------------------------------12--13--14--15--16--17--|
H|----------------------------------------------------------------------------------13--14--15--16--------------------------|
G|--------------------------------------------------------------12--13--14--15--16------------------------------------------|
D|------------------------------------------12--13--14--15--16--------------------------------------------------------------|
A|----------------------12--13--14--15--16----------------------------------------------------------------------------------|
E|--12--13--14--15--16------------------------------------------------------------------------------------------------------|


NEDOVER:
E|--17--16--15--14--13--12--------------------------------------------------------------------------------------------------|
H|--------------------------16--15--14--13----------------------------------------------------------------------------------|
G|------------------------------------------16--15--14--13--12--------------------------------------------------------------|
D|--------------------------------------------------------------16--15--14--13--12------------------------------------------|
A|----------------------------------------------------------------------------------16--15--14--13--12----------------------|
E|------------------------------------------------------------------------------------------------------16--15--14--13--12--|
×

Informasjon som skalaen:


Skala

A kromatisk

Grunntone

A

Skalatrinn

1/2 + 1/2 + 1/2 + 1/2 + 1/2 + 1/2 + 1/2 + 1/2 + 1/2 + 1/2 + 1/2

Skalatoner

A - A# - H - C - C# - D - D# - E - F - F# - G - G#

Om
Kromatisk
skala

Denne skalaen har 12 forskjellige toner, nærmere bestemt 12 halvtoner. Den består av alle tonene som fins i vestlig musikk, det vil si i såkalt temperert stemt musikk.

Anvendelse

Denne skalaen er ikke så lett for nybegynnere å bruke til å improvisere(lage soloer) med. Den er nok aller mest vanlig å bruke i kombinasjon med andre skalaer, som et "krydder". Innen jazz er skalaen mye brukt, men da oftest kun deler av skalaen, og sjelden alle tonene på en gang. Det er likevel en fin øvelse å bruke den til å lage soloer, og husk, som Charlie Parker sa: "Det er aldri mer enn en halvtone (ett bånd) til den riktige tonen"

Prøv å improvisere sammen med et backingtrack:


Ingen backingtracks til denne skalaen