A bebop dominant skala



SKALA

INFO

A bebop dominant
0.pos.

1.

2.

3.

4.

5.

6.

7.

8.

9.

10.

11.

12.

  • E
  • A
  • D
  • G
  • H
  • E



A bebop dominant 0. posisjon

OPPOVER:
E|--------------------------------------------------0--2--3--4--5--|
H|-----------------------------------------0--2--3-----------------|
G|--------------------------------0--1--2--------------------------|
D|-----------------------0--2--4-----------------------------------|
A|--------------0--2--4--------------------------------------------|
E|--0--2--3--4-----------------------------------------------------|


NEDOVER:
E|--5--4--3--2--0--------------------------------------------------|
H|-----------------3--2--0-----------------------------------------|
G|--------------------------2--1--0--------------------------------|
D|-----------------------------------4--2--0-----------------------|
A|--------------------------------------------4--2--0--------------|
E|-----------------------------------------------------4--3--2--0--|
×

A bebop dominant
4.pos.

1.

2.

3.

4.

5.

6.

7.

8.

9.

10.

11.

12.

  • E
  • A
  • D
  • G
  • H
  • E



A bebop dominant 4. posisjon

OPPOVER:
E|-----------------------------------------------4--5--7--|
H|--------------------------------------5--7--8-----------|
G|-----------------------------4--6--7--------------------|
D|-----------------4--5--6--7-----------------------------|
A|--------4--5--7-----------------------------------------|
E|--5--7--------------------------------------------------|


NEDOVER:
E|--7--5--4-----------------------------------------------|
H|-----------8--7--5--------------------------------------|
G|--------------------7--6--4-----------------------------|
D|-----------------------------7--6--5--4-----------------|
A|-----------------------------------------7--5--4--------|
E|--------------------------------------------------7--5--|
×

A bebop dominant
11.pos.

9.

10.

11.

12.

13.

14.

15.

16.

17.

18.

19.

20.

  • E
  • A
  • D
  • G
  • H
  • E



A bebop dominant 11. posisjon

OPPOVER:
E|------------------------------------------------------------------12--14--15--16--17--|
H|------------------------------------------------------12--14--15----------------------|
G|--------------------------------------11--12--13--14----------------------------------|
D|--------------------------11--12--14--------------------------------------------------|
A|--------------11--12--14--------------------------------------------------------------|
E|--12--14--15--------------------------------------------------------------------------|


NEDOVER:
E|--17--16--15--14--12------------------------------------------------------------------|
H|----------------------15--14--12------------------------------------------------------|
G|----------------------------------14--13--12--11--------------------------------------|
D|--------------------------------------------------14--12--11--------------------------|
A|--------------------------------------------------------------14--12--11--------------|
E|--------------------------------------------------------------------------15--14--12--|
×

A bebop dominant
16.pos.

9.

10.

11.

12.

13.

14.

15.

16.

17.

18.

19.

20.

  • E
  • A
  • D
  • G
  • H
  • E



A bebop dominant 16. posisjon

OPPOVER:
E|--------------------------------------------------------------16--17--19--|
H|--------------------------------------------------17--19--20--------------|
G|--------------------------------------16--18--19--------------------------|
D|----------------------16--17--18--19--------------------------------------|
A|----------16--17--19------------------------------------------------------|
E|--17--19------------------------------------------------------------------|


NEDOVER:
E|--19--17--16--------------------------------------------------------------|
H|--------------20--19--17--------------------------------------------------|
G|--------------------------19--18--16--------------------------------------|
D|--------------------------------------19--18--17--16----------------------|
A|------------------------------------------------------19--17--16----------|
E|------------------------------------------------------------------19--17--|
×

Informasjon som skalaen:


Skala

A bebop dominant

Grunntone

A

Skalatrinn

1 + 1 + 1/2 + 1 + 1 + 1/2 + 1/2

Skalatoner

A - H - C# - D - E - F# - G - G#

Om
Bebop dominant
skala

Bebop dominantskala har 8 forskjellig toner. Den er ganske så lik miksolydisk skala, men har én tone i tillegg. Denne tonen er et høyt sjuende trinn. Altså har bebop dominant skala både høyt og lavt syvende trinn, siden miksolydisk skala jo har lavt syvende trinn. Begynner vi på C vil dette si at vi både har tonen H og tonen Hb.

Anvendelse

Skalaen brukes mye i jazzimprovisasjon innen bebop-sjangeren. Bebop dominant skala vil i utgangspunktet låte fint over alle dominant7-akkorder, dvs. at G bebop dominant skala passer fint til å spille en solo over G7-akkorden.

Prøv å improvisere sammen med et backingtrack:


Ingen backingtracks til denne skalaen