A bebop dur skala



SKALA

INFO

A bebop dur
0.pos.

1.

2.

3.

4.

5.

6.

7.

8.

9.

10.

11.

12.

  • E
  • A
  • D
  • G
  • H
  • E



A bebop dur 0. posisjon

OPPOVER:
E|--------------------------------------------------0--1--2--4--5--|
H|-----------------------------------------0--2--3-----------------|
G|-----------------------------------1--2--------------------------|
D|-----------------------0--2--3--4--------------------------------|
A|--------------0--2--4--------------------------------------------|
E|--0--1--2--4-----------------------------------------------------|


NEDOVER:
E|--5--4--2--1--0--------------------------------------------------|
H|-----------------3--2--0-----------------------------------------|
G|--------------------------2--1-----------------------------------|
D|--------------------------------4--3--2--0-----------------------|
A|--------------------------------------------4--2--0--------------|
E|-----------------------------------------------------4--2--1--0--|
×

A bebop dur
4.pos.

1.

2.

3.

4.

5.

6.

7.

8.

9.

10.

11.

12.

  • E
  • A
  • D
  • G
  • H
  • E



A bebop dur 4. posisjon

OPPOVER:
E|-----------------------------------------------4--5--7--9--10--|
H|--------------------------------------5--6--7------------------|
G|-----------------------------4--6--7---------------------------|
D|--------------------4--6--7------------------------------------|
A|--------4--5--7--8---------------------------------------------|
E|--5--7---------------------------------------------------------|


NEDOVER:
E|--10--9--7--5--4-----------------------------------------------|
H|------------------7--6--5--------------------------------------|
G|---------------------------7--6--4-----------------------------|
D|------------------------------------7--6--4--------------------|
A|---------------------------------------------8--7--5--4--------|
E|---------------------------------------------------------7--5--|
×

A bebop dur
11.pos.

9.

10.

11.

12.

13.

14.

15.

16.

17.

18.

19.

20.

  • E
  • A
  • D
  • G
  • H
  • E



A bebop dur 11. posisjon

OPPOVER:
E|------------------------------------------------------------------12--13--14--16--17--|
H|------------------------------------------------------12--14--15----------------------|
G|------------------------------------------11--13--14----------------------------------|
D|--------------------------11--12--14--15----------------------------------------------|
A|--------------11--12--14--------------------------------------------------------------|
E|--12--13--14--------------------------------------------------------------------------|


NEDOVER:
E|--17--16--14--13--12------------------------------------------------------------------|
H|----------------------15--14--12------------------------------------------------------|
G|----------------------------------14--13--11------------------------------------------|
D|----------------------------------------------15--14--12--11--------------------------|
A|--------------------------------------------------------------14--12--11--------------|
E|--------------------------------------------------------------------------14--13--12--|
×

A bebop dur
16.pos.

9.

10.

11.

12.

13.

14.

15.

16.

17.

18.

19.

20.

  • E
  • A
  • D
  • G
  • H
  • E



A bebop dur 16. posisjon

OPPOVER:
E|--------------------------------------------------------------16--17--19--|
H|--------------------------------------------------17--18--19--------------|
G|--------------------------------------16--18--19--------------------------|
D|--------------------------16--18--19--------------------------------------|
A|----------16--17--19--20--------------------------------------------------|
E|--17--19------------------------------------------------------------------|


NEDOVER:
E|--19--17--16--------------------------------------------------------------|
H|--------------19--18--17--------------------------------------------------|
G|--------------------------19--18--16--------------------------------------|
D|--------------------------------------19--18--16--------------------------|
A|--------------------------------------------------20--19--17--16----------|
E|------------------------------------------------------------------19--17--|
×

Informasjon som skalaen:


Skala

A bebop dur

Grunntone

A

Skalatrinn

1 + 1 + 1/2 + 1 + 1/2 + 1/2 + 1

Skalatoner

A - H - C# - D - E - F - F# - G#

Om
Bebop dur
skala

Bebop durskala har 8 forskjellig toner. Den er ganske så lik durskalaen, men har én tone i tillegg. Denne tonen er et lavt sjette trinn. I C-bebop dur vil dette si en Ab i tillegg til de vanlige tonene i C-durskalaen.

Anvendelse

Skalaen brukes mye i jazzimprovisasjon innen bebop-sjangeren. Bebop durskala vil som lydisk skala i utgangspunktet låta fint over alle durakkorder(innebærer også maj7-akkorder).

Prøv å improvisere sammen med et backingtrack:


Ingen backingtracks til denne skalaen