A persisk skala



SKALA

INFO

BACKING

A persisk
0.pos.

1.

2.

3.

4.

5.

6.

7.

8.

9.

10.

11.

12.

  • E
  • A
  • D
  • G
  • H
  • E



A persisk 0. posisjon

OPPOVER:
E|--------------------------------------------1--4--5--|
H|-----------------------------------2--3--4-----------|
G|--------------------------1--2--3--------------------|
D|-----------------0--1--3-----------------------------|
A|--------0--1--4--------------------------------------|
E|--1--4-----------------------------------------------|


NEDOVER:
E|--5--4--1--------------------------------------------|
H|-----------4--3--2-----------------------------------|
G|--------------------3--2--1--------------------------|
D|-----------------------------3--1--0-----------------|
A|--------------------------------------4--1--0--------|
E|-----------------------------------------------4--1--|
×

A persisk
4.pos.

1.

2.

3.

4.

5.

6.

7.

8.

9.

10.

11.

12.

  • E
  • A
  • D
  • G
  • H
  • E



A persisk 4. posisjon

OPPOVER:
E|-----------------------------------------4--5--6--|
H|--------------------------------------6-----------|
G|-----------------------------6--7--8--------------|
D|--------------------6--7--8-----------------------|
A|--------4--5--6--8--------------------------------|
E|--5--6--------------------------------------------|


NEDOVER:
E|--6--5--4-----------------------------------------|
H|-----------6--------------------------------------|
G|--------------8--7--6-----------------------------|
D|-----------------------8--7--6--------------------|
A|--------------------------------8--6--5--4--------|
E|--------------------------------------------6--5--|
×

Informasjon som skalaen:


Skala

A persisk

Grunntone

A

Skalatrinn

1/2 + 1 1/2 + 1/2 + 1/2 + 1 + 1 1/2

Skalatoner

A - A# - C# - D - D# - F - G#

Om
Persisk
skala

Persisk skala finner man som navnet skulle tilsi ofte i persisk musikk, men også i annen musikk med opphav rundt middelhavet. Skalaen består av mange halvtoner. En halvtone tilsvarer ett bånd på gitaren. Den inneholder også en forstørret sekund(tre bånd på gitaren), mellom sjette og sjuende tone.

Anvendelse

Bruk av denne skalaen vil gi det du spiller et spennende "orientalsk" preg. Gjør deg godt kjent med den og "smak" på alle skalaens toner.

Prøv å improvisere sammen med et backingtrack:


PERSISK I A