A orientalsk skala



SKALA

INFO

A orientalsk
0.pos.

1.

2.

3.

4.

5.

6.

7.

8.

9.

10.

11.

12.

  • E
  • A
  • D
  • G
  • H
  • E



A orientalsk 0. posisjon

OPPOVER:
E|--------------------------------------------2--3--5--|
H|-----------------------------------2--3--4-----------|
G|--------------------------0--2--3--------------------|
D|-----------------0--1--4-----------------------------|
A|--------0--1--4--------------------------------------|
E|--2--3-----------------------------------------------|


NEDOVER:
E|--5--3--2--------------------------------------------|
H|-----------4--3--2-----------------------------------|
G|--------------------3--2--0--------------------------|
D|-----------------------------4--1--0-----------------|
A|--------------------------------------4--1--0--------|
E|-----------------------------------------------3--2--|
×

A orientalsk
4.pos.

1.

2.

3.

4.

5.

6.

7.

8.

9.

10.

11.

12.

  • E
  • A
  • D
  • G
  • H
  • E



A orientalsk 4. posisjon

OPPOVER:
E|--------------------------------------------5--6--9--|
H|--------------------------------------7--8-----------|
G|-----------------------------6--7--8-----------------|
D|-----------------4--5--7--8--------------------------|
A|--------4--5--6--------------------------------------|
E|--5--6-----------------------------------------------|


NEDOVER:
E|--9--6--5--------------------------------------------|
H|-----------8--7--------------------------------------|
G|-----------------8--7--6-----------------------------|
D|--------------------------8--7--5--4-----------------|
A|--------------------------------------6--5--4--------|
E|-----------------------------------------------6--5--|
×

Informasjon som skalaen:


Skala

A orientalsk

Grunntone

A

Skalatrinn

1/2 + 1 1/2 + 1/2 + 1/2 + 1 1/2 + 1/2

Skalatoner

A - A# - C# - D - D# - F# - G

Om
Orientalsk
skala

Denne skalaen består av mange halvtonetrinn som gir den dens orientalske preg. Den vil nok lyde ukjent for de fleste norske ører.

Anvendelse

Denne skalaen er fin til jazzimprovisasjon over en dominantakkord, da dette gir mange muligheter for å bruke spenningstoner. Prøv å spille C orientalsk over en C7 dominantakkord.

Prøv å improvisere sammen med et backingtrack:


Ingen backingtracks til denne skalaen