A neapolitansk moll skala



SKALA

INFO

A neapolitansk moll
0.pos.

1.

2.

3.

4.

5.

6.

7.

8.

9.

10.

11.

12.

  • E
  • A
  • D
  • G
  • H
  • E



A neapolitansk moll 0. posisjon

OPPOVER:
E|--------------------------------------------0--1--3--5--|
H|--------------------------------------1--3--------------|
G|-----------------------------0--2--3--------------------|
D|--------------------0--2--3-----------------------------|
A|-----------0--1--3--------------------------------------|
E|--0--1--3-----------------------------------------------|


NEDOVER:
E|--5--3--1--0--------------------------------------------|
H|--------------3--1--------------------------------------|
G|--------------------3--2--0-----------------------------|
D|-----------------------------3--2--0--------------------|
A|--------------------------------------3--1--0-----------|
E|-----------------------------------------------3--1--0--|
×

A neapolitansk moll
5.pos.

1.

2.

3.

4.

5.

6.

7.

8.

9.

10.

11.

12.

  • E
  • A
  • D
  • G
  • H
  • E



A neapolitansk moll 5. posisjon

OPPOVER:
E|--------------------------------------------5--6--8--|
H|-----------------------------------5--6--8-----------|
G|-----------------------------5--7--------------------|
D|--------------------5--7--8--------------------------|
A|-----------5--7--8-----------------------------------|
E|--5--6--8--------------------------------------------|


NEDOVER:
E|--8--6--5--------------------------------------------|
H|-----------8--6--5-----------------------------------|
G|--------------------7--5-----------------------------|
D|--------------------------8--7--5--------------------|
A|-----------------------------------8--7--5-----------|
E|--------------------------------------------8--6--5--|
×

A neapolitansk moll
12.pos.

9.

10.

11.

12.

13.

14.

15.

16.

17.

18.

19.

20.

  • E
  • A
  • D
  • G
  • H
  • E



A neapolitansk moll 12. posisjon

OPPOVER:
E|----------------------------------------------------------12--13--15--17--|
H|--------------------------------------------------13--15------------------|
G|--------------------------------------12--14--15--------------------------|
D|--------------------------12--14--15--------------------------------------|
A|--------------12--13--15--------------------------------------------------|
E|--12--13--15--------------------------------------------------------------|


NEDOVER:
E|--17--15--13--12----------------------------------------------------------|
H|------------------15--13--------------------------------------------------|
G|--------------------------15--14--12--------------------------------------|
D|--------------------------------------15--14--12--------------------------|
A|--------------------------------------------------15--13--12--------------|
E|--------------------------------------------------------------15--13--12--|
×

Informasjon som skalaen:


Skala

A neapolitansk moll

Grunntone

A

Skalatrinn

1/2 + 1 + 1 + 1 + 1/2 + 1

Skalatoner

A - A# - C - D - E - F - G

Om
Neapolitansk moll
skala

Neapolitansk moll er en 7-toneskala. Den består først av et halvtonetrinn(ett bånd på gitaren)deretter tre heltonetrinn( et heltonetrinn=to bånd) og til slutt en forstørret sekund(tre bånd).

Anvendelse

Denne skalen er mye brukt innen metallsjangeren. Skalaen passer godt til power chords og mollakkorder. Altså kan man for eksempel spille C neapolitasnk moll over en C-mollakkord, eller over en C5.

Prøv å improvisere sammen med et backingtrack:


Ingen backingtracks til denne skalaen