A neapolitansk dur skala



SKALA

INFO

A neapolitansk dur
0.pos.

1.

2.

3.

4.

5.

6.

7.

8.

9.

10.

11.

12.

  • E
  • A
  • D
  • G
  • H
  • E



A neapolitansk dur 0. posisjon

OPPOVER:
E|--------------------------------------------0--2--4--5--|
H|--------------------------------------1--3--------------|
G|-----------------------------1--2--3--------------------|
D|--------------------0--2--4-----------------------------|
A|-----------0--1--3--------------------------------------|
E|--0--2--4-----------------------------------------------|


NEDOVER:
E|--5--4--2--0--------------------------------------------|
H|--------------3--1--------------------------------------|
G|--------------------3--2--1-----------------------------|
D|-----------------------------4--2--0--------------------|
A|--------------------------------------3--1--0-----------|
E|-----------------------------------------------4--2--0--|
×

A neapolitansk dur
4.pos.

1.

2.

3.

4.

5.

6.

7.

8.

9.

10.

11.

12.

  • E
  • A
  • D
  • G
  • H
  • E



A neapolitansk dur 4. posisjon

OPPOVER:
E|-----------------------------------------4--5--6--8--|
H|-----------------------------------5--7--------------|
G|-----------------------------5--7--------------------|
D|-----------------4--6--7--8--------------------------|
A|-----------5--7--------------------------------------|
E|--5--6--8--------------------------------------------|


NEDOVER:
E|--8--6--5--4-----------------------------------------|
H|--------------7--5-----------------------------------|
G|--------------------7--5-----------------------------|
D|--------------------------8--7--6--4-----------------|
A|--------------------------------------7--5-----------|
E|--------------------------------------------8--6--5--|
×

A neapolitansk dur
11.pos.

9.

10.

11.

12.

13.

14.

15.

16.

17.

18.

19.

20.

  • E
  • A
  • D
  • G
  • H
  • E



A neapolitansk dur 11. posisjon

OPPOVER:
E|----------------------------------------------------------12--14--16--17--|
H|--------------------------------------------------13--15------------------|
G|----------------------------------11--13--14--15--------------------------|
D|--------------------------12--14------------------------------------------|
A|----------11--12--13--15--------------------------------------------------|
E|--12--14------------------------------------------------------------------|


NEDOVER:
E|--17--16--14--12----------------------------------------------------------|
H|------------------15--13--------------------------------------------------|
G|--------------------------15--14--13--11----------------------------------|
D|------------------------------------------14--12--------------------------|
A|--------------------------------------------------15--13--12--11----------|
E|------------------------------------------------------------------14--12--|
×

Informasjon som skalaen:


Skala

A neapolitansk dur

Grunntone

A

Skalatrinn

1/2 + 1 + 1 + 1 + 1 + 1

Skalatoner

A - A# - C - D - E - F# - G#

Om
Neapolitansk dur
skala

Neapolitansk dur er en sjutone skala. Den består av først et halvtonetrinn, så fire heltonetrinn og så to halvtonetrinn. De mange heltonetrinnene gjør at den minner om heltoneskalaens klang. Denne klinger nok eksotisk for de fleste.

Anvendelse

Denne kan for eksempel brukes på power chords(5 akkorder, kvintakkorder) eller på mollakkorder. Mye brukt innen metallsjangeren.

Prøv å improvisere sammen med et backingtrack:


Ingen backingtracks til denne skalaen