A ungarsk dur skala



SKALA

INFO

A ungarsk dur
0.pos.

1.

2.

3.

4.

5.

6.

7.

8.

9.

10.

11.

12.

  • E
  • A
  • D
  • G
  • H
  • E



A ungarsk dur 0. posisjon

OPPOVER:
E|--------------------------------------------0--2--3--5--|
H|-----------------------------------1--2--4--------------|
G|-----------------------------0--2-----------------------|
D|--------------------1--2--4-----------------------------|
A|-----------0--3--4--------------------------------------|
E|--0--2--3-----------------------------------------------|


NEDOVER:
E|--5--3--2--0--------------------------------------------|
H|--------------4--2--1-----------------------------------|
G|-----------------------2--0-----------------------------|
D|-----------------------------4--2--1--------------------|
A|--------------------------------------4--3--0-----------|
E|-----------------------------------------------3--2--0--|
×

A ungarsk dur
4.pos.

1.

2.

3.

4.

5.

6.

7.

8.

9.

10.

11.

12.

  • E
  • A
  • D
  • G
  • H
  • E



A ungarsk dur 4. posisjon

OPPOVER:
E|--------------------------------------------5--8--9--|
H|-----------------------------------5--7--8-----------|
G|--------------------------5--6--8--------------------|
D|-----------------4--5--7-----------------------------|
A|--------4--6--7--------------------------------------|
E|--5--8-----------------------------------------------|


NEDOVER:
E|--9--8--5--------------------------------------------|
H|-----------8--7--5-----------------------------------|
G|--------------------8--6--5--------------------------|
D|-----------------------------7--5--4-----------------|
A|--------------------------------------7--6--4--------|
E|-----------------------------------------------8--5--|
×

A ungarsk dur
11.pos.

9.

10.

11.

12.

13.

14.

15.

16.

17.

18.

19.

20.

  • E
  • A
  • D
  • G
  • H
  • E



A ungarsk dur 11. posisjon

OPPOVER:
E|------------------------------------------------------11--12--14--15--17--|
H|----------------------------------------------13--14----------------------|
G|----------------------------------11--12--14------------------------------|
D|----------------------11--13--14------------------------------------------|
A|--------------12--15------------------------------------------------------|
E|--12--14--15--------------------------------------------------------------|


NEDOVER:
E|--17--15--14--12--11------------------------------------------------------|
H|----------------------14--13----------------------------------------------|
G|------------------------------14--12--11----------------------------------|
D|------------------------------------------14--13--11----------------------|
A|------------------------------------------------------15--12--------------|
E|--------------------------------------------------------------15--14--12--|
×

Informasjon som skalaen:


Skala

A ungarsk dur

Grunntone

A

Skalatrinn

1 1/2 + 1/2 + 1 + 1/2 + 1 + 1/2

Skalatoner

A - C - C# - D# - E - F# - G

Om
Ungarsk dur
skala

Denne skalaen kan vi si er en variant av dim(halv/hel)skala. Alle tonene i for eksempel C-dur ungarsk skala er nemlig i en C-dim halv/hel skala, men forskjellen er at ungarsk dur har en tone mindre. Denne tonen er andretrinnet i en hal/hel skala, i C tilsvarer dette en C#.

Anvendelse

Denne skalaen kan en for eksempel bruke til å improvisere over dominantakkorder med. Prøv å spille C-dur ungarsk skala over en C7-akkord.

Prøv å improvisere sammen med et backingtrack:


Ingen backingtracks til denne skalaen