A bysantisk skala



SKALA

INFO

A bysantisk
0.pos.

1.

2.

3.

4.

5.

6.

7.

8.

9.

10.

11.

12.

  • E
  • A
  • D
  • G
  • H
  • E



A bysantisk 0. posisjon

OPPOVER:
E|--------------------------------------------0--1--4--5--|
H|--------------------------------------2--3--------------|
G|-----------------------------1--2--3--------------------|
D|--------------------0--2--3-----------------------------|
A|-----------0--1--4--------------------------------------|
E|--0--1--4-----------------------------------------------|


NEDOVER:
E|--5--4--1--0--------------------------------------------|
H|--------------3--2--------------------------------------|
G|--------------------3--2--1-----------------------------|
D|-----------------------------3--2--0--------------------|
A|--------------------------------------4--1--0-----------|
E|-----------------------------------------------4--1--0--|
×

A bysantisk
4.pos.

1.

2.

3.

4.

5.

6.

7.

8.

9.

10.

11.

12.

  • E
  • A
  • D
  • G
  • H
  • E



A bysantisk 4. posisjon

OPPOVER:
E|-----------------------------------------4--5--6--9--10--|
H|-----------------------------------5--6------------------|
G|-----------------------------6--7------------------------|
D|--------------------6--7--8------------------------------|
A|--------4--5--7--8---------------------------------------|
E|--5--6---------------------------------------------------|


NEDOVER:
E|--10--9--6--5--4-----------------------------------------|
H|------------------6--5-----------------------------------|
G|------------------------7--6-----------------------------|
D|------------------------------8--7--6--------------------|
A|---------------------------------------8--7--5--4--------|
E|---------------------------------------------------6--5--|
×

A bysantisk
11.pos.

9.

10.

11.

12.

13.

14.

15.

16.

17.

18.

19.

20.

  • E
  • A
  • D
  • G
  • H
  • E



A bysantisk 11. posisjon

OPPOVER:
E|----------------------------------------------------------12--13--16--17--|
H|--------------------------------------------------14--15------------------|
G|--------------------------------------13--14--15--------------------------|
D|----------------------11--12--14--15--------------------------------------|
A|----------11--12--13------------------------------------------------------|
E|--12--13------------------------------------------------------------------|


NEDOVER:
E|--17--16--13--12----------------------------------------------------------|
H|------------------15--14--------------------------------------------------|
G|--------------------------15--14--13--------------------------------------|
D|--------------------------------------15--14--12--11----------------------|
A|------------------------------------------------------13--12--11----------|
E|------------------------------------------------------------------13--12--|
×

A bysantisk
16.pos.

9.

10.

11.

12.

13.

14.

15.

16.

17.

18.

19.

20.

  • E
  • A
  • D
  • G
  • H
  • E



A bysantisk 16. posisjon

OPPOVER:
E|----------------------------------------------------------16--17--18--|
H|--------------------------------------------------17--18--------------|
G|------------------------------------------18--19----------------------|
D|------------------------------18--19--20------------------------------|
A|--------------16--17--19--20------------------------------------------|
E|--16--17--18----------------------------------------------------------|


NEDOVER:
E|--18--17--16----------------------------------------------------------|
H|--------------18--17--------------------------------------------------|
G|----------------------19--18------------------------------------------|
D|------------------------------20--19--18------------------------------|
A|------------------------------------------20--19--17--16--------------|
E|----------------------------------------------------------18--17--16--|
×

Informasjon som skalaen:


Skala

A bysantisk

Grunntone

A

Skalatrinn

1/2 + 1 1/2 + 1/2 + 1 + 1/2 + 1 1/2

Skalatoner

A - A# - C# - D - E - F - G#

Om
Bysantisk
skala

Bysantinsk skala er en skala bestående av sju toner. Den består av flere halvtonetrinn. Dette gir det eksotiske/østlige preget.

Anvendelse

Dette er også en skala som kan tilføre et spennende sound i dine soloer. Særlig metallgitarister vil nok finne denne interessant.

Prøv å improvisere sammen med et backingtrack:


Ingen backingtracks til denne skalaen