A arabisk skala



SKALA

INFO

A arabisk
0.pos.

1.

2.

3.

4.

5.

6.

7.

8.

9.

10.

11.

12.

  • E
  • A
  • D
  • G
  • H
  • E



A arabisk 0. posisjon

OPPOVER:
E|--------------------------------------------1--3--|
H|--------------------------------0--2--3--4--------|
G|--------------------------0--2--------------------|
D|-----------------0--1--3--------------------------|
A|--------0--2--4-----------------------------------|
E|--1--3--------------------------------------------|


NEDOVER:
E|--3--1--------------------------------------------|
H|--------4--3--2--0--------------------------------|
G|--------------------2--0--------------------------|
D|--------------------------3--1--0-----------------|
A|-----------------------------------4--2--0--------|
E|--------------------------------------------3--1--|
×

A arabisk
5.pos.

1.

2.

3.

4.

5.

6.

7.

8.

9.

10.

11.

12.

  • E
  • A
  • D
  • G
  • H
  • E



A arabisk 5. posisjon

OPPOVER:
E|--------------------------------------------5--7--9--|
H|--------------------------------------6--8-----------|
G|-----------------------------6--7--8-----------------|
D|--------------------5--7--9--------------------------|
A|-----------5--6--8-----------------------------------|
E|--5--7--9--------------------------------------------|


NEDOVER:
E|--9--7--5--------------------------------------------|
H|-----------8--6--------------------------------------|
G|-----------------8--7--6-----------------------------|
D|--------------------------9--7--5--------------------|
A|-----------------------------------8--6--5-----------|
E|--------------------------------------------9--7--5--|
×

A arabisk
10.pos.

9.

10.

11.

12.

13.

14.

15.

16.

17.

18.

19.

20.

  • E
  • A
  • D
  • G
  • H
  • E



A arabisk 10. posisjon

OPPOVER:
E|----------------------------------------------------------10--11--13--|
H|----------------------------------------------10--12--14--------------|
G|--------------------------------------10--12--------------------------|
D|--------------------------11--12--13----------------------------------|
A|--------------10--12--14----------------------------------------------|
E|--10--11--13----------------------------------------------------------|


NEDOVER:
E|--13--11--10----------------------------------------------------------|
H|--------------14--12--10----------------------------------------------|
G|--------------------------12--10--------------------------------------|
D|----------------------------------13--12--11--------------------------|
A|----------------------------------------------14--12--10--------------|
E|----------------------------------------------------------13--11--10--|
×

A arabisk
13.pos.

9.

10.

11.

12.

13.

14.

15.

16.

17.

18.

19.

20.

  • E
  • A
  • D
  • G
  • H
  • E



A arabisk 13. posisjon

OPPOVER:
E|----------------------------------------------------------13--15--17--|
H|----------------------------------------------14--15--16--------------|
G|--------------------------------------14--16--------------------------|
D|--------------------------13--15--17----------------------------------|
A|--------------14--16--17----------------------------------------------|
E|--13--15--17----------------------------------------------------------|


NEDOVER:
E|--17--15--13----------------------------------------------------------|
H|--------------16--15--14----------------------------------------------|
G|--------------------------16--14--------------------------------------|
D|----------------------------------17--15--13--------------------------|
A|----------------------------------------------17--16--14--------------|
E|----------------------------------------------------------17--15--13--|
×

A arabisk
15.pos.

9.

10.

11.

12.

13.

14.

15.

16.

17.

18.

19.

20.

  • E
  • A
  • D
  • G
  • H
  • E



A arabisk 15. posisjon

OPPOVER:
E|----------------------------------------------------------15--17--19--|
H|----------------------------------------------15--16--18--------------|
G|--------------------------------------16--18--------------------------|
D|--------------------------15--17--19----------------------------------|
A|--------------16--17--18----------------------------------------------|
E|--15--17--19----------------------------------------------------------|


NEDOVER:
E|--19--17--15----------------------------------------------------------|
H|--------------18--16--15----------------------------------------------|
G|--------------------------18--16--------------------------------------|
D|----------------------------------19--17--15--------------------------|
A|----------------------------------------------18--17--16--------------|
E|----------------------------------------------------------19--17--15--|
×

Informasjon som skalaen:


Skala

A arabisk

Grunntone

A

Skalatrinn

1 + 1 + 1/2 + 1/2 + 1 + 1

Skalatoner

A - H - C# - D - D# - F - G

Om
Arabisk
skala

Det finnes flere skalaer som går under navnet "arabisk". Denne skalaen består av sju toner.De to første trinnene er heltonetrinn (2 bånd på gitaren er et heltonetrinn) deretter to halvtrinn (1 bånd)og så to heltonetrinn. Som navnet sier er dette en skala mye brukt i arabisk musikk, og vil nok klinge noe uvant i de fleste norske ører.

Anvendelse

Dette er en skala man kan bruke som "krydder" i en solo. I jazz eller metallsjangeren kan for eksempel dette gi spennende muligheter.

Prøv å improvisere sammen med et backingtrack:


Ingen backingtracks til denne skalaen