A jødisk skala



SKALA

INFO

A jødisk
0.pos.

1.

2.

3.

4.

5.

6.

7.

8.

9.

10.

11.

12.

  • E
  • A
  • D
  • G
  • H
  • E



A jødisk 0. posisjon

OPPOVER:
E|--------------------------------------------0--1--3--5--|
H|--------------------------------------2--3--------------|
G|-----------------------------0--2--3--------------------|
D|--------------------0--2--3-----------------------------|
A|-----------0--1--4--------------------------------------|
E|--0--1--3-----------------------------------------------|


NEDOVER:
E|--5--3--1--0--------------------------------------------|
H|--------------3--2--------------------------------------|
G|--------------------3--2--0-----------------------------|
D|-----------------------------3--2--0--------------------|
A|--------------------------------------4--1--0-----------|
E|-----------------------------------------------3--1--0--|
×

A jødisk
4.pos.

1.

2.

3.

4.

5.

6.

7.

8.

9.

10.

11.

12.

  • E
  • A
  • D
  • G
  • H
  • E



A jødisk 4. posisjon

OPPOVER:
E|--------------------------------------------5--6--9--10--|
H|-----------------------------------5--6--8---------------|
G|-----------------------------6--7------------------------|
D|--------------------5--7--8------------------------------|
A|--------4--5--7--8---------------------------------------|
E|--5--6---------------------------------------------------|


NEDOVER:
E|--10--9--6--5--------------------------------------------|
H|---------------8--6--5-----------------------------------|
G|------------------------7--6-----------------------------|
D|------------------------------8--7--5--------------------|
A|---------------------------------------8--7--5--4--------|
E|---------------------------------------------------6--5--|
×

A jødisk
11.pos.

9.

10.

11.

12.

13.

14.

15.

16.

17.

18.

19.

20.

  • E
  • A
  • D
  • G
  • H
  • E



A jødisk 11. posisjon

OPPOVER:
E|----------------------------------------------------------12--13--15--17--|
H|--------------------------------------------------14--15------------------|
G|--------------------------------------12--14--15--------------------------|
D|----------------------11--12--14--15--------------------------------------|
A|--------------12--13------------------------------------------------------|
E|--12--13--15--------------------------------------------------------------|


NEDOVER:
E|--17--15--13--12----------------------------------------------------------|
H|------------------15--14--------------------------------------------------|
G|--------------------------15--14--12--------------------------------------|
D|--------------------------------------15--14--12--11----------------------|
A|------------------------------------------------------13--12--------------|
E|--------------------------------------------------------------15--13--12--|
×

Informasjon som skalaen:


Skala

A jødisk

Grunntone

A

Skalatrinn

1/2 + 1 1/2 + 1/2 + 1 + 1/2 + 1

Skalatoner

A - A# - C# - D - E - F - G

Om
Jødisk
skala

Kalles også Ahaba Rabba-skala. Den som kjenner harmonisk mollskala vil kjenne igjen denne. Jødisk skala har nemlig akkurat de samme tonene, dersom man starter å spille harmonisk mollskala fra femte trinn. Det vil si at A-moll harmonisk skala fra e (5.trinn i a-moll) er lik jødisk skala i e. Denne kalles også frygisk dominant skala.

Anvendelse

Denne er anvendelig i mange sanger som går i moll, særlig på dominantakkorder, det vil si femtetrinnsakkorden. I c-moll vil dette si G-dur. Spiller man jødisk skala på en g-durakkord i en sang som går i c-moll vil dette fungere meget bra. Meget bra for jazzimprovisasjon.

Prøv å improvisere sammen med et backingtrack:


Ingen backingtracks til denne skalaen