A super lokrisk skala



SKALA

INFO

A super lokrisk
0.pos.

1.

2.

3.

4.

5.

6.

7.

8.

9.

10.

11.

12.

  • E
  • A
  • D
  • G
  • H
  • E



A super lokrisk 0. posisjon

OPPOVER:
E|--------------------------------------------1--3--5--|
H|-----------------------------------1--2--4-----------|
G|--------------------------0--2--3--------------------|
D|--------------------1--3-----------------------------|
A|--------0--1--3--4-----------------------------------|
E|--1--3-----------------------------------------------|


NEDOVER:
E|--5--3--1--------------------------------------------|
H|-----------4--2--1-----------------------------------|
G|--------------------3--2--0--------------------------|
D|-----------------------------3--1--------------------|
A|-----------------------------------4--3--1--0--------|
E|-----------------------------------------------3--1--|
×

A super lokrisk
5.pos.

1.

2.

3.

4.

5.

6.

7.

8.

9.

10.

11.

12.

  • E
  • A
  • D
  • G
  • H
  • E



A super lokrisk 5. posisjon

OPPOVER:
E|--------------------------------------------5--6--8--9--|
H|--------------------------------------6--8--------------|
G|-----------------------------5--6--8--------------------|
D|--------------------5--7--8-----------------------------|
A|--------------6--8--------------------------------------|
E|--5--6--8--9--------------------------------------------|


NEDOVER:
E|--9--8--6--5--------------------------------------------|
H|--------------8--6--------------------------------------|
G|--------------------8--6--5-----------------------------|
D|-----------------------------8--7--5--------------------|
A|--------------------------------------8--6--------------|
E|--------------------------------------------9--8--6--5--|
×

A super lokrisk
12.pos.

9.

10.

11.

12.

13.

14.

15.

16.

17.

18.

19.

20.

  • E
  • A
  • D
  • G
  • H
  • E



A super lokrisk 12. posisjon

OPPOVER:
E|----------------------------------------------------------13--15--17--|
H|----------------------------------------------13--14--16--------------|
G|----------------------------------12--14--15--------------------------|
D|--------------------------13--15--------------------------------------|
A|----------12--13--15--16----------------------------------------------|
E|--13--15--------------------------------------------------------------|


NEDOVER:
E|--17--15--13----------------------------------------------------------|
H|--------------16--14--13----------------------------------------------|
G|--------------------------15--14--12----------------------------------|
D|--------------------------------------15--13--------------------------|
A|----------------------------------------------16--15--13--12----------|
E|--------------------------------------------------------------15--13--|
×

Informasjon som skalaen:


Skala

A super lokrisk

Grunntone

A

Skalatrinn

1/2 + 1 + 1/2 + 1 + 1 + 1

Skalatoner

A - A# - C - C# - D# - F - G

Om
Super lokrisk
skala

Super lokrisk skala er en skala med 7 toner. Den har lavt andre og tredje trinn og forminsket/lavt femte,sjette og syvende trinn. Merk at skalaen er helt lik en melodisk mollskala hvis vi starter fra 2 trinn i super lokrisk skala. Denne skalaen er særlig mye brukt i jazzimprovisasjon.

Anvendelse

Super-lokrisk er særlig fin å bruke til å improvisere over dominant7-akkorder i jazzimprovisasjon, da den er full av "spenningstoner". C super lokrisk er dermed fin å bruke til å spille solo over C7, C7b9, C7#9, C7#11, C7#5 eller kombinasjoner av disse.

Prøv å improvisere sammen med et backingtrack:


Ingen backingtracks til denne skalaen