A lokrisk skala



SKALA

INFO

A lokrisk
0.pos.

1.

2.

3.

4.

5.

6.

7.

8.

9.

10.

11.

12.

  • E
  • A
  • D
  • G
  • H
  • E



A lokrisk 0. posisjon

OPPOVER:
E|--------------------------------------------1--3--5--|
H|-----------------------------------1--3--4-----------|
G|--------------------------0--2--3--------------------|
D|-----------------0--1--3-----------------------------|
A|--------0--1--3--------------------------------------|
E|--1--3-----------------------------------------------|


NEDOVER:
E|--5--3--1--------------------------------------------|
H|-----------4--3--1-----------------------------------|
G|--------------------3--2--0--------------------------|
D|-----------------------------3--1--0-----------------|
A|--------------------------------------3--1--0--------|
E|-----------------------------------------------3--1--|
×

A lokrisk
5.pos.

1.

2.

3.

4.

5.

6.

7.

8.

9.

10.

11.

12.

  • E
  • A
  • D
  • G
  • H
  • E



A lokrisk 5. posisjon

OPPOVER:
E|--------------------------------------------5--6--8--|
H|--------------------------------------6--8-----------|
G|-----------------------------5--7--8-----------------|
D|--------------------5--7--8--------------------------|
A|-----------5--6--8-----------------------------------|
E|--5--6--8--------------------------------------------|


NEDOVER:
E|--8--6--5--------------------------------------------|
H|-----------8--6--------------------------------------|
G|-----------------8--7--5-----------------------------|
D|--------------------------8--7--5--------------------|
A|-----------------------------------8--6--5-----------|
E|--------------------------------------------8--6--5--|
×

A lokrisk
12.pos.

9.

10.

11.

12.

13.

14.

15.

16.

17.

18.

19.

20.

  • E
  • A
  • D
  • G
  • H
  • E



A lokrisk 12. posisjon

OPPOVER:
E|----------------------------------------------------------13--15--17--|
H|----------------------------------------------13--15--16--------------|
G|----------------------------------12--14--15--------------------------|
D|----------------------12--13--15--------------------------------------|
A|----------12--13--15--------------------------------------------------|
E|--13--15--------------------------------------------------------------|


NEDOVER:
E|--17--15--13----------------------------------------------------------|
H|--------------16--15--13----------------------------------------------|
G|--------------------------15--14--12----------------------------------|
D|--------------------------------------15--13--12----------------------|
A|--------------------------------------------------15--13--12----------|
E|--------------------------------------------------------------15--13--|
×

A lokrisk
17.pos.

9.

10.

11.

12.

13.

14.

15.

16.

17.

18.

19.

20.

  • E
  • A
  • D
  • G
  • H
  • E



A lokrisk 17. posisjon

OPPOVER:
E|----------------------------------------------------------17--18--20--|
H|--------------------------------------------------18--20--------------|
G|--------------------------------------17--19--20----------------------|
D|--------------------------17--19--20----------------------------------|
A|--------------17--18--20----------------------------------------------|
E|--17--18--20----------------------------------------------------------|


NEDOVER:
E|--20--18--17----------------------------------------------------------|
H|--------------20--18--------------------------------------------------|
G|----------------------20--19--17--------------------------------------|
D|----------------------------------20--19--17--------------------------|
A|----------------------------------------------20--18--17--------------|
E|----------------------------------------------------------20--18--17--|
×

Informasjon som skalaen:


Skala

A lokrisk

Grunntone

A

Skalatrinn

1/2 + 1 + 1 + 1/2 + 1 + 1

Skalatoner

A - A# - C - D - D# - F - G

Om
Lokrisk
skala

Lokrisk skala er en diatonisk skala med 7 toner. Den er en mollskala siden det er 3 bånd mellom første og tredje tone. Til forskjell fra vanlig(ren) moll har denne skalaen lavt andre trinn og lavt(forminsket) femte trinn, det vil si at tone nummer to og fem i lokrisk skala begge ligger ett bånd lavere enn i vanlig moll. Navnet lokrisk stammer fra gresk, og skalaen er fra en gruppe kalt kirketonearter. Merk at lokrisk skala er lik en durskala spilt fra syvende trinn.

Anvendelse

Denne skalaen brukes ofte i jazzimprovisasjon. Den passer fint over moll7b5 akkorder, siden skalaen både har mollters og lavt/forminsket femte trinn. Det vil si at h lokrisk passer fint over en hmoll7b5 akkord.

Prøv å improvisere sammen med et backingtrack:


Ingen backingtracks til denne skalaen