A miksolydisk skala



SKALA

INFO

BACKING

A miksolydisk
0.pos.

1.

2.

3.

4.

5.

6.

7.

8.

9.

10.

11.

12.

  • E
  • A
  • D
  • G
  • H
  • E



A miksolydisk 0. posisjon

OPPOVER:
E|--------------------------------------------0--2--3--5--|
H|-----------------------------------0--2--3--------------|
G|-----------------------------0--2-----------------------|
D|--------------------0--2--4-----------------------------|
A|-----------0--2--4--------------------------------------|
E|--0--2--3-----------------------------------------------|


NEDOVER:
E|--5--3--2--0--------------------------------------------|
H|--------------3--2--0-----------------------------------|
G|-----------------------2--0-----------------------------|
D|-----------------------------4--2--0--------------------|
A|--------------------------------------4--2--0-----------|
E|-----------------------------------------------3--2--0--|
×

A miksolydisk
4.pos.

1.

2.

3.

4.

5.

6.

7.

8.

9.

10.

11.

12.

  • E
  • A
  • D
  • G
  • H
  • E



A miksolydisk 4. posisjon

OPPOVER:
E|--------------------------------------------5--7--|
H|-----------------------------------5--7--8--------|
G|--------------------------4--6--7-----------------|
D|-----------------4--5--7--------------------------|
A|--------4--5--7-----------------------------------|
E|--5--7--------------------------------------------|


NEDOVER:
E|--7--5--------------------------------------------|
H|--------8--7--5-----------------------------------|
G|-----------------7--6--4--------------------------|
D|--------------------------7--5--4-----------------|
A|-----------------------------------7--5--4--------|
E|--------------------------------------------7--5--|
×

A miksolydisk
12.pos.

9.

10.

11.

12.

13.

14.

15.

16.

17.

18.

19.

20.

  • E
  • A
  • D
  • G
  • H
  • E



A miksolydisk 12. posisjon

OPPOVER:
E|----------------------------------------------------------12--14--15--|
H|----------------------------------------------12--14--15--------------|
G|----------------------------------11--12--14--------------------------|
D|----------------------11--12--14--------------------------------------|
A|--------------12--14--------------------------------------------------|
E|--12--14--15----------------------------------------------------------|


NEDOVER:
E|--15--14--12----------------------------------------------------------|
H|--------------15--14--12----------------------------------------------|
G|--------------------------14--12--11----------------------------------|
D|--------------------------------------14--12--11----------------------|
A|--------------------------------------------------14--12--------------|
E|----------------------------------------------------------15--14--12--|
×

A miksolydisk
16.pos.

9.

10.

11.

12.

13.

14.

15.

16.

17.

18.

19.

20.

  • E
  • A
  • D
  • G
  • H
  • E



A miksolydisk 16. posisjon

OPPOVER:
E|----------------------------------------------------------17--19--|
H|----------------------------------------------17--19--20----------|
G|----------------------------------16--18--19----------------------|
D|----------------------16--17--19----------------------------------|
A|----------16--17--19----------------------------------------------|
E|--17--19----------------------------------------------------------|


NEDOVER:
E|--19--17----------------------------------------------------------|
H|----------20--19--17----------------------------------------------|
G|----------------------19--18--16----------------------------------|
D|----------------------------------19--17--16----------------------|
A|----------------------------------------------19--17--16----------|
E|----------------------------------------------------------19--17--|
×

Informasjon som skalaen:


Skala

A miksolydisk

Grunntone

A

Skalatrinn

1 + 1 + 1/2 + 1 + 1 + 1/2

Skalatoner

A - H - C# - D - E - F# - G

Om
Miksolydisk
skala

Miksolydisk skala er en diatonisk skala med 7 toner, og også denne minner om durskalaen. Til forskjell fra dur har denne skalaen lavt syvende trinn, det vil si at tone nummer 7 i miksolydisk skala ligger ett bånd lavere enn i dur. Navnet miksolydisk stammer fra gresk, og skalaen er fra en gruppe kalt kirketonearter. Merk at miksolydisk skala er lik en durskala spilt fra femte trinn.

Anvendelse

Skalaen brukes mye i jazzimprovisasjon. Miksolydisk skala vil i utgangspunktet låte fint over alle dominant7-akkorder, dvs. at G miksolydisk skala passer fint til å spille en solo over G7-akkorden. G miksolydisk vil også fungere fint over akkordprogresjoner som G-F-G-F osv, på samme måte som for eksempel D miksolydisk vil fungere fint over D-C-D-C.

Prøv å improvisere sammen med et backingtrack:


A7-GREPET


MIKSO TRENING I A


MY OLD HORSE


ORGELBLUES I A


PAPA GROWS FUNK I A