A frygisk skala



SKALA

INFO

A frygisk
0.pos.

1.

2.

3.

4.

5.

6.

7.

8.

9.

10.

11.

12.

  • E
  • A
  • D
  • G
  • H
  • E



A frygisk 0. posisjon

OPPOVER:
E|--------------------------------------------0--1--3--5--|
H|--------------------------------------1--3--------------|
G|-----------------------------0--2--3--------------------|
D|--------------------0--2--3-----------------------------|
A|-----------0--1--3--------------------------------------|
E|--0--1--3-----------------------------------------------|


NEDOVER:
E|--5--3--1--0--------------------------------------------|
H|--------------3--1--------------------------------------|
G|--------------------3--2--0-----------------------------|
D|-----------------------------3--2--0--------------------|
A|--------------------------------------3--1--0-----------|
E|-----------------------------------------------3--1--0--|
×

A frygisk
5.pos.

1.

2.

3.

4.

5.

6.

7.

8.

9.

10.

11.

12.

  • E
  • A
  • D
  • G
  • H
  • E



A frygisk 5. posisjon

OPPOVER:
E|--------------------------------------------5--6--8--|
H|-----------------------------------5--6--8-----------|
G|-----------------------------5--7--------------------|
D|--------------------5--7--8--------------------------|
A|-----------5--7--8-----------------------------------|
E|--5--6--8--------------------------------------------|


NEDOVER:
E|--8--6--5--------------------------------------------|
H|-----------8--6--5-----------------------------------|
G|--------------------7--5-----------------------------|
D|--------------------------8--7--5--------------------|
A|-----------------------------------8--7--5-----------|
E|--------------------------------------------8--6--5--|
×

A frygisk
12.pos.

9.

10.

11.

12.

13.

14.

15.

16.

17.

18.

19.

20.

  • E
  • A
  • D
  • G
  • H
  • E



A frygisk 12. posisjon

OPPOVER:
E|----------------------------------------------------------12--13--15--|
H|--------------------------------------------------13--15--------------|
G|--------------------------------------12--14--15----------------------|
D|--------------------------12--14--15----------------------------------|
A|--------------12--13--15----------------------------------------------|
E|--12--13--15----------------------------------------------------------|


NEDOVER:
E|--15--13--12----------------------------------------------------------|
H|--------------15--13--------------------------------------------------|
G|----------------------15--14--12--------------------------------------|
D|----------------------------------15--14--12--------------------------|
A|----------------------------------------------15--13--12--------------|
E|----------------------------------------------------------15--13--12--|
×

A frygisk
17.pos.

9.

10.

11.

12.

13.

14.

15.

16.

17.

18.

19.

20.

  • E
  • A
  • D
  • G
  • H
  • E



A frygisk 17. posisjon

OPPOVER:
E|----------------------------------------------------------17--18--20--|
H|----------------------------------------------17--18--20--------------|
G|--------------------------------------17--19--------------------------|
D|--------------------------17--19--20----------------------------------|
A|--------------17--19--20----------------------------------------------|
E|--17--18--20----------------------------------------------------------|


NEDOVER:
E|--20--18--17----------------------------------------------------------|
H|--------------20--18--17----------------------------------------------|
G|--------------------------19--17--------------------------------------|
D|----------------------------------20--19--17--------------------------|
A|----------------------------------------------20--19--17--------------|
E|----------------------------------------------------------20--18--17--|
×

Informasjon som skalaen:


Skala

A frygisk

Grunntone

A

Skalatrinn

1/2 + 1 + 1 + 1 + 1/2 + 1

Skalatoner

A - A# - C - D - E - F - G

Om
Frygisk
skala

Frygisk skala er en diatonisk skala med 7 toner. Den er en mollskala siden det er tre bånd mellom første og tredje tone. Til forskjell fra vanlig(ren) moll har denne skalaen lavt andre trinn, det vil si at tone nummer to i frygisk skala ligger ett bånd lavere enn i vanlig moll. Navnet frygisk stammer fra gresk, og skalaen er fra en gruppe kalt kirketonearter. Merk at frygisk skala er lik en durskala spilt fra tredje trinn.

Anvendelse

Frygisk skala vil i noen tilfeller kunne passe til å spille en solo over en sang som går i moll. Det er imidlertid få "vanlige" sanger som bygger på denne skalaen. En god start er derfor å bruke denne skalaen over kun èn mollakkord, for eksempel e-frygisk skala over en e-mollakkord.

Prøv å improvisere sammen med et backingtrack:


Ingen backingtracks til denne skalaen