A sigøynermoll skala



SKALA

INFO

A sigøynermoll
0.pos.

1.

2.

3.

4.

5.

6.

7.

8.

9.

10.

11.

12.

  • E
  • A
  • D
  • G
  • H
  • E



A sigøynermoll 0. posisjon

OPPOVER:
E|--------------------------------------------0--1--4--5--|
H|-----------------------------------0--1--4--------------|
G|-----------------------------1--2-----------------------|
D|--------------------1--2--3-----------------------------|
A|-----------0--2--3--------------------------------------|
E|--0--1--4-----------------------------------------------|


NEDOVER:
E|--5--4--1--0--------------------------------------------|
H|--------------4--1--0-----------------------------------|
G|-----------------------2--1-----------------------------|
D|-----------------------------3--2--1--------------------|
A|--------------------------------------3--2--0-----------|
E|-----------------------------------------------4--1--0--|
×

A sigøynermoll
4.pos.

1.

2.

3.

4.

5.

6.

7.

8.

9.

10.

11.

12.

  • E
  • A
  • D
  • G
  • H
  • E



A sigøynermoll 4. posisjon

OPPOVER:
E|-----------------------------------------4--5--7--8--|
H|--------------------------------4--5--6--------------|
G|--------------------------4--5-----------------------|
D|--------------------6--7-----------------------------|
A|-----------6--7--8-----------------------------------|
E|--5--7--8--------------------------------------------|


NEDOVER:
E|--8--7--5--4-----------------------------------------|
H|--------------6--5--4--------------------------------|
G|-----------------------5--4--------------------------|
D|-----------------------------7--6--------------------|
A|-----------------------------------8--7--6-----------|
E|--------------------------------------------8--7--5--|
×

A sigøynermoll
11.pos.

9.

10.

11.

12.

13.

14.

15.

16.

17.

18.

19.

20.

  • E
  • A
  • D
  • G
  • H
  • E



A sigøynermoll 11. posisjon

OPPOVER:
E|----------------------------------------------------------------------16--17--|
H|----------------------------------------------------------16--17--18----------|
G|------------------------------------------13--14--16--17----------------------|
D|------------------------------13--14--15--------------------------------------|
A|--------------11--12--14--15--------------------------------------------------|
E|--11--12--13------------------------------------------------------------------|


NEDOVER:
E|--17--16----------------------------------------------------------------------|
H|----------18--17--16----------------------------------------------------------|
G|----------------------17--16--14--13------------------------------------------|
D|--------------------------------------15--14--13------------------------------|
A|--------------------------------------------------15--14--12--11--------------|
E|------------------------------------------------------------------13--12--11--|
×

A sigøynermoll
16.pos.

9.

10.

11.

12.

13.

14.

15.

16.

17.

18.

19.

20.

  • E
  • A
  • D
  • G
  • H
  • E



A sigøynermoll 16. posisjon

OPPOVER:
E|------------------------------------------------------16--17--19--20--|
H|------------------------------------------16--17--18------------------|
G|----------------------------------16--17------------------------------|
D|--------------------------18--19--------------------------------------|
A|--------------18--19--20----------------------------------------------|
E|--17--19--20----------------------------------------------------------|


NEDOVER:
E|--20--19--17--16------------------------------------------------------|
H|------------------18--17--16------------------------------------------|
G|------------------------------17--16----------------------------------|
D|--------------------------------------19--18--------------------------|
A|----------------------------------------------20--19--18--------------|
E|----------------------------------------------------------20--19--17--|
×

Informasjon som skalaen:


Skala

A sigøynermoll

Grunntone

A

Skalatrinn

1 + 1/2 + 1 1/2 + 1/2 + 1/2 + 1 1/2

Skalatoner

A - H - C - D# - E - F - G#

Om
Sigøynermoll
skala

Denne skalaen kan nok virke kjent. Den har nesten akkurat samme toner som en harmonisk mollskala. Det spesielle med denne skalaen er det forstørrete fjerde trinnet som ligger ett bånd over fjerdetrinnet i en vanlig harmonisk mollskala.

Anvendelse

Denne er fin å bruke i jazzsammenheng på låter som går i moll. Den er et "must" for en som vil lære seg å spille "gypsyjazz" a là "Hot club de Norvège". Også heavygitarister kan finne denne svært interessant å bruke i en solo.

Prøv å improvisere sammen med et backingtrack:


Ingen backingtracks til denne skalaen