A lydisk skala



SKALA

INFO

A lydisk
0.pos.

1.

2.

3.

4.

5.

6.

7.

8.

9.

10.

11.

12.

  • E
  • A
  • D
  • G
  • H
  • E



A lydisk 0. posisjon

OPPOVER:
E|-----------------------------------------------0--2--4--|
H|--------------------------------------0--2--4-----------|
G|-----------------------------1--2--4--------------------|
D|--------------------1--2--4-----------------------------|
A|-----------0--2--4--------------------------------------|
E|--0--2--4-----------------------------------------------|


NEDOVER:
E|--4--2--0-----------------------------------------------|
H|-----------4--2--0--------------------------------------|
G|--------------------4--2--1-----------------------------|
D|-----------------------------4--2--1--------------------|
A|--------------------------------------4--2--0-----------|
E|-----------------------------------------------4--2--0--|
×

A lydisk
1.pos.

1.

2.

3.

4.

5.

6.

7.

8.

9.

10.

11.

12.

  • E
  • A
  • D
  • G
  • H
  • E



A lydisk 1. posisjon

OPPOVER:
E|--------------------------------------------2--4--5--|
H|-----------------------------------2--4--5-----------|
G|--------------------------1--2--4--------------------|
D|-----------------1--2--4-----------------------------|
A|-----------2--4--------------------------------------|
E|--2--4--5--------------------------------------------|


NEDOVER:
E|--5--4--2--------------------------------------------|
H|-----------5--4--2-----------------------------------|
G|--------------------4--2--1--------------------------|
D|-----------------------------4--2--1-----------------|
A|--------------------------------------4--2-----------|
E|--------------------------------------------5--4--2--|
×

A lydisk
4.pos.

1.

2.

3.

4.

5.

6.

7.

8.

9.

10.

11.

12.

  • E
  • A
  • D
  • G
  • H
  • E



A lydisk 4. posisjon

OPPOVER:
E|--------------------------------------------4--5--7--|
H|-----------------------------------4--5--7-----------|
G|-----------------------------4--6--------------------|
D|--------------------4--6--7--------------------------|
A|-----------4--6--7-----------------------------------|
E|--4--5--7--------------------------------------------|


NEDOVER:
E|--7--5--4--------------------------------------------|
H|-----------7--5--4-----------------------------------|
G|--------------------6--4-----------------------------|
D|--------------------------7--6--4--------------------|
A|-----------------------------------7--6--4-----------|
E|--------------------------------------------7--5--4--|
×

A lydisk
6.pos.

1.

2.

3.

4.

5.

6.

7.

8.

9.

10.

11.

12.

  • E
  • A
  • D
  • G
  • H
  • E



A lydisk 6. posisjon

OPPOVER:
E|---------------------------------------------7--9--|
H|-----------------------------------7--9--10--------|
G|--------------------------6--8--9------------------|
D|-----------------6--7--9---------------------------|
A|--------6--7--9------------------------------------|
E|--7--9---------------------------------------------|


NEDOVER:
E|--9--7---------------------------------------------|
H|--------10--9--7-----------------------------------|
G|------------------9--8--6--------------------------|
D|---------------------------9--7--6-----------------|
A|------------------------------------9--7--6--------|
E|---------------------------------------------9--7--|
×

A lydisk
8.pos.

1.

2.

3.

4.

5.

6.

7.

8.

9.

10.

11.

12.

  • E
  • A
  • D
  • G
  • H
  • E



A lydisk 8. posisjon

OPPOVER:
E|----------------------------------------------------9--11--12--|
H|-----------------------------------------9--10--12-------------|
G|-------------------------------8--9--11------------------------|
D|------------------------9--11----------------------------------|
A|-------------9--11--12-----------------------------------------|
E|--9--11--12----------------------------------------------------|


NEDOVER:
E|--12--11--9----------------------------------------------------|
H|-------------12--10--9-----------------------------------------|
G|------------------------11--9--8-------------------------------|
D|----------------------------------11--9------------------------|
A|-----------------------------------------12--11--9-------------|
E|----------------------------------------------------12--11--9--|
×

A lydisk
11.pos.

9.

10.

11.

12.

13.

14.

15.

16.

17.

18.

19.

20.

  • E
  • A
  • D
  • G
  • H
  • E



A lydisk 11. posisjon

OPPOVER:
E|----------------------------------------------------------11--12--14--|
H|--------------------------------------------------12--14--------------|
G|--------------------------------------11--13--14----------------------|
D|--------------------------11--13--14----------------------------------|
A|--------------11--12--14----------------------------------------------|
E|--11--12--14----------------------------------------------------------|


NEDOVER:
E|--14--12--11----------------------------------------------------------|
H|--------------14--12--------------------------------------------------|
G|----------------------14--13--11--------------------------------------|
D|----------------------------------14--13--11--------------------------|
A|----------------------------------------------14--12--11--------------|
E|----------------------------------------------------------14--12--11--|
×

A lydisk
13.pos.

9.

10.

11.

12.

13.

14.

15.

16.

17.

18.

19.

20.

  • E
  • A
  • D
  • G
  • H
  • E



A lydisk 13. posisjon

OPPOVER:
E|----------------------------------------------------------14--16--17--|
H|----------------------------------------------14--16--17--------------|
G|----------------------------------13--14--16--------------------------|
D|----------------------13--14--16--------------------------------------|
A|--------------14--16--------------------------------------------------|
E|--14--16--17----------------------------------------------------------|


NEDOVER:
E|--17--16--14----------------------------------------------------------|
H|--------------17--16--14----------------------------------------------|
G|--------------------------16--14--13----------------------------------|
D|--------------------------------------16--14--13----------------------|
A|--------------------------------------------------16--14--------------|
E|----------------------------------------------------------17--16--14--|
×

A lydisk
16.pos.

9.

10.

11.

12.

13.

14.

15.

16.

17.

18.

19.

20.

  • E
  • A
  • D
  • G
  • H
  • E



A lydisk 16. posisjon

OPPOVER:
E|----------------------------------------------------------16--17--19--|
H|----------------------------------------------16--17--19--------------|
G|--------------------------------------16--18--------------------------|
D|--------------------------16--18--19----------------------------------|
A|--------------16--18--19----------------------------------------------|
E|--16--17--19----------------------------------------------------------|


NEDOVER:
E|--19--17--16----------------------------------------------------------|
H|--------------19--17--16----------------------------------------------|
G|--------------------------18--16--------------------------------------|
D|----------------------------------19--18--16--------------------------|
A|----------------------------------------------19--18--16--------------|
E|----------------------------------------------------------19--17--16--|
×

Informasjon som skalaen:


Skala

A lydisk

Grunntone

A

Skalatrinn

1 + 1 + 1 + 1/2 + 1 + 1

Skalatoner

A - H - C# - D# - E - F# - G#

Om
Lydisk
skala

Lydisk skala er en diatonisk skala med syv toner, og den minner om durskalaen. Til forskjell fra dur har denne skalaen høyt(forstørret) fjerde trinn, det vil si at tone nummer fire i lydisk skala ligger ett bånd høyere enn i dur. Navnet lydisk stammer fra gresk, og skalaen er fra en gruppe kalt kirketonearter. Merk at lydisk skala er lik en durskala spilt fra fjerde trinn.

Anvendelse

Skalaen brukes mye i jazzimprovisasjon. Lydisk skala vil i utgangspunktet låta fint over alle durakkorder(innebærer også maj7-akkorder).

Prøv å improvisere sammen med et backingtrack:


Ingen backingtracks til denne skalaen