A dim halv-hel skala



SKALA

INFO

A dim halv-hel
0.pos.

1.

2.

3.

4.

5.

6.

7.

8.

9.

10.

11.

12.

  • E
  • A
  • D
  • G
  • H
  • E



A dim halv-hel 0. posisjon

OPPOVER:
E|-----------------------------------------------------2--3--5--|
H|--------------------------------------------2--4--5-----------|
G|-----------------------------------2--3--5--------------------|
D|-----------------------1--2--4--5-----------------------------|
A|-----------0--1--3--4-----------------------------------------|
E|--0--2--3-----------------------------------------------------|


NEDOVER:
E|--5--3--2-----------------------------------------------------|
H|-----------5--4--2--------------------------------------------|
G|--------------------5--3--2-----------------------------------|
D|-----------------------------5--4--2--1-----------------------|
A|-----------------------------------------4--3--1--0-----------|
E|-----------------------------------------------------3--2--0--|
×

A dim halv-hel
5.pos.

1.

2.

3.

4.

5.

6.

7.

8.

9.

10.

11.

12.

  • E
  • A
  • D
  • G
  • H
  • E



A dim halv-hel 5. posisjon

OPPOVER:
E|--------------------------------------------------------------8--9--11--12--|
H|---------------------------------------------------8--10--11----------------|
G|-----------------------------------------8--9--11---------------------------|
D|---------------------------7--8--10--11-------------------------------------|
A|--------------6--7--9--10---------------------------------------------------|
E|--5--6--8--9----------------------------------------------------------------|


NEDOVER:
E|--12--11--9--8--------------------------------------------------------------|
H|----------------11--10--8---------------------------------------------------|
G|---------------------------11--9--8-----------------------------------------|
D|-------------------------------------11--10--8--7---------------------------|
A|---------------------------------------------------10--9--7--6--------------|
E|----------------------------------------------------------------9--8--6--5--|
×

A dim halv-hel
11.pos.

9.

10.

11.

12.

13.

14.

15.

16.

17.

18.

19.

20.

  • E
  • A
  • D
  • G
  • H
  • E



A dim halv-hel 11. posisjon

OPPOVER:
E|--------------------------------------------------------------------------14--15--17--|
H|--------------------------------------------------------------14--16--17--------------|
G|--------------------------------------------------14--15--17--------------------------|
D|----------------------------------13--14--16--17--------------------------------------|
A|------------------12--13--15--16------------------------------------------------------|
E|--11--12--14--15----------------------------------------------------------------------|


NEDOVER:
E|--17--15--14--------------------------------------------------------------------------|
H|--------------17--16--14--------------------------------------------------------------|
G|--------------------------17--15--14--------------------------------------------------|
D|--------------------------------------17--16--14--13----------------------------------|
A|------------------------------------------------------16--15--13--12------------------|
E|----------------------------------------------------------------------15--14--12--11--|
×

Informasjon som skalaen:


Skala

A dim halv-hel

Grunntone

A

Skalatrinn

1/2 + 1 + 1/2 + 1 + 1/2 + 1 + 1/2

Skalatoner

A - A# - C - C# - D# - E - F# - G

Om
Dim halv-hel
skala

Dim-skalaen(diminished scale) er en symmetrisk halv/hel skala. Det vil si at det er ett bånd mellom første og andre tone, to bånd mellom andre og tredje tone, ett bånd mellom tredje og fjerde osv. Denne skalaen skal visstnok ha blitt brukt i persisk musikk så tidlig som på 600-tallet. I vestlig klassisk musikk ble den tatt i bruk fra en gang på 1800-tallet. I dag vil nok mange forbinde denne skalaen med jazz.

Anvendelse

Denne skalaen er fin å bruke for å skape spenning i solospillet ditt. Den brukes først og fremst i kombinasjon med andre skalaer. Innen jazz er den fin å bruke på dominant-akkorder, som f.eks. G7. Da vil G dim halv/hel skalaen være passende. Også innen heavy metal er dim-skalen anvendelig.

Prøv å improvisere sammen med et backingtrack:


Ingen backingtracks til denne skalaen