A dorisk skala



SKALA

INFO

BACKING

A dorisk
0.pos.

1.

2.

3.

4.

5.

6.

7.

8.

9.

10.

11.

12.

  • E
  • A
  • D
  • G
  • H
  • E



A dorisk 0. posisjon

OPPOVER:
E|--------------------------------------------0--2--3--|
H|-----------------------------------0--1--3-----------|
G|-----------------------------0--2--------------------|
D|--------------------0--2--4--------------------------|
A|-----------0--2--3-----------------------------------|
E|--0--2--3--------------------------------------------|


NEDOVER:
E|--3--2--0--------------------------------------------|
H|-----------3--1--0-----------------------------------|
G|--------------------2--0-----------------------------|
D|--------------------------4--2--0--------------------|
A|-----------------------------------3--2--0-----------|
E|--------------------------------------------3--2--0--|
×

A dorisk
2.pos.

1.

2.

3.

4.

5.

6.

7.

8.

9.

10.

11.

12.

  • E
  • A
  • D
  • G
  • H
  • E



A dorisk 2. posisjon

OPPOVER:
E|--------------------------------------------2--3--5--|
H|--------------------------------------3--5-----------|
G|-----------------------------2--4--5-----------------|
D|--------------------2--4--5--------------------------|
A|-----------2--3--5-----------------------------------|
E|--2--3--5--------------------------------------------|


NEDOVER:
E|--5--3--2--------------------------------------------|
H|-----------5--3--------------------------------------|
G|-----------------5--4--2-----------------------------|
D|--------------------------5--4--2--------------------|
A|-----------------------------------5--3--2-----------|
E|--------------------------------------------5--3--2--|
×

A dorisk
4.pos.

1.

2.

3.

4.

5.

6.

7.

8.

9.

10.

11.

12.

  • E
  • A
  • D
  • G
  • H
  • E



A dorisk 4. posisjon

OPPOVER:
E|--------------------------------------------5--7--8--|
H|-----------------------------------5--7--8-----------|
G|--------------------------4--5--7--------------------|
D|-----------------4--5--7-----------------------------|
A|-----------5--7--------------------------------------|
E|--5--7--8--------------------------------------------|


NEDOVER:
E|--8--7--5--------------------------------------------|
H|-----------8--7--5-----------------------------------|
G|--------------------7--5--4--------------------------|
D|-----------------------------7--5--4-----------------|
A|--------------------------------------7--5-----------|
E|--------------------------------------------8--7--5--|
×

A dorisk
7.pos.

1.

2.

3.

4.

5.

6.

7.

8.

9.

10.

11.

12.

  • E
  • A
  • D
  • G
  • H
  • E



A dorisk 7. posisjon

OPPOVER:
E|------------------------------------------------7--8--10--|
H|--------------------------------------7--8--10------------|
G|--------------------------------7--9----------------------|
D|----------------------7--9--10----------------------------|
A|------------7--9--10--------------------------------------|
E|--7--8--10------------------------------------------------|


NEDOVER:
E|--10--8--7------------------------------------------------|
H|------------10--8--7--------------------------------------|
G|----------------------9--7--------------------------------|
D|----------------------------10--9--7----------------------|
A|--------------------------------------10--9--7------------|
E|------------------------------------------------10--8--7--|
×

A dorisk
9.pos.

9.

10.

11.

12.

13.

14.

15.

16.

17.

18.

19.

20.

  • E
  • A
  • D
  • G
  • H
  • E



A dorisk 9. posisjon

OPPOVER:
E|-------------------------------------------------------10--12--|
H|-------------------------------------------10--12--13----------|
G|--------------------------------9--11--12----------------------|
D|---------------------9--10--12---------------------------------|
A|----------9--10--12--------------------------------------------|
E|--10--12-------------------------------------------------------|


NEDOVER:
E|--12--10-------------------------------------------------------|
H|----------13--12--10-------------------------------------------|
G|----------------------12--11--9--------------------------------|
D|---------------------------------12--10--9---------------------|
A|--------------------------------------------12--10--9----------|
E|-------------------------------------------------------12--10--|
×

A dorisk
11.pos.

9.

10.

11.

12.

13.

14.

15.

16.

17.

18.

19.

20.

  • E
  • A
  • D
  • G
  • H
  • E



A dorisk 11. posisjon

OPPOVER:
E|----------------------------------------------------------12--14--15--|
H|----------------------------------------------12--13--15--------------|
G|----------------------------------11--12--14--------------------------|
D|--------------------------12--14--------------------------------------|
A|--------------12--14--15----------------------------------------------|
E|--12--14--15----------------------------------------------------------|


NEDOVER:
E|--15--14--12----------------------------------------------------------|
H|--------------15--13--12----------------------------------------------|
G|--------------------------14--12--11----------------------------------|
D|--------------------------------------14--12--------------------------|
A|----------------------------------------------15--14--12--------------|
E|----------------------------------------------------------15--14--12--|
×

A dorisk
14.pos.

9.

10.

11.

12.

13.

14.

15.

16.

17.

18.

19.

20.

  • E
  • A
  • D
  • G
  • H
  • E



A dorisk 14. posisjon

OPPOVER:
E|----------------------------------------------------------14--15--17--|
H|--------------------------------------------------15--17--------------|
G|--------------------------------------14--16--17----------------------|
D|--------------------------14--16--17----------------------------------|
A|--------------14--15--17----------------------------------------------|
E|--14--15--17----------------------------------------------------------|


NEDOVER:
E|--17--15--14----------------------------------------------------------|
H|--------------17--15--------------------------------------------------|
G|----------------------17--16--14--------------------------------------|
D|----------------------------------17--16--14--------------------------|
A|----------------------------------------------17--15--14--------------|
E|----------------------------------------------------------17--15--14--|
×

A dorisk
16.pos.

9.

10.

11.

12.

13.

14.

15.

16.

17.

18.

19.

20.

  • E
  • A
  • D
  • G
  • H
  • E



A dorisk 16. posisjon

OPPOVER:
E|----------------------------------------------------------17--19--20--|
H|----------------------------------------------17--19--20--------------|
G|----------------------------------16--17--19--------------------------|
D|----------------------16--17--19--------------------------------------|
A|--------------17--19--------------------------------------------------|
E|--17--19--20----------------------------------------------------------|


NEDOVER:
E|--20--19--17----------------------------------------------------------|
H|--------------20--19--17----------------------------------------------|
G|--------------------------19--17--16----------------------------------|
D|--------------------------------------19--17--16----------------------|
A|--------------------------------------------------19--17--------------|
E|----------------------------------------------------------20--19--17--|
×

Informasjon som skalaen:


Skala

A dorisk

Grunntone

A

Skalatrinn

1 + 1/2 + 1 + 1 + 1 + 1/2

Skalatoner

A - H - C - D - E - F# - G

Om
Dorisk
skala

Dorisk skala er en diatonisk skala med 7 toner. Den er en mollskala siden det er 3 bånd mellom første og tredje tone. Til forskjell fra vanlig(ren) moll har denne skalaen høyt sjette trinn, det vil si at tone nummer seks i dorisk skala ligger ett bånd høyere enn i vanlig moll. Navnet dorisk stammer fra gresk, og skalaen er fra en gruppe kalt kirketonearter. Merk at dorisk skala er lik en durskala spilt fra andre trinn.

Anvendelse

Dorisk skala er særlig mye brukt i jazzimprovisasjon. D dorisk vil for eksempel passe bra til akkordprogresjonen Dm - G7. Dorisk skala brukes også i soloer innen metal-sjangeren. Så lenge en spiller solo over en mollakkord vil alltid dorisk skala låte riktig. For eksempel E dorisk til E-moll, A dorisk til A-moll osv.

Prøv å improvisere sammen med et backingtrack:


A DORISK BOSSA