A melodisk moll skala



SKALA

INFO

BACKING

A melodisk moll
0.pos.

1.

2.

3.

4.

5.

6.

7.

8.

9.

10.

11.

12.

  • E
  • A
  • D
  • G
  • H
  • E



A melodisk moll 0. posisjon

OPPOVER:
E|--------------------------------------------0--2--4--5--|
H|-----------------------------------0--1--3--------------|
G|-----------------------------1--2-----------------------|
D|--------------------0--2--4-----------------------------|
A|-----------0--2--3--------------------------------------|
E|--0--2--4-----------------------------------------------|


NEDOVER:
E|--5--4--2--0--------------------------------------------|
H|--------------3--1--0-----------------------------------|
G|-----------------------2--1-----------------------------|
D|-----------------------------4--2--0--------------------|
A|--------------------------------------3--2--0-----------|
E|-----------------------------------------------4--2--0--|
×

A melodisk moll
4.pos.

1.

2.

3.

4.

5.

6.

7.

8.

9.

10.

11.

12.

  • E
  • A
  • D
  • G
  • H
  • E



A melodisk moll 4. posisjon

OPPOVER:
E|-----------------------------------------4--5--7--8--|
H|-----------------------------------5--7--------------|
G|--------------------------4--5--7--------------------|
D|-----------------4--6--7-----------------------------|
A|-----------5--7--------------------------------------|
E|--5--7--8--------------------------------------------|


NEDOVER:
E|--8--7--5--4-----------------------------------------|
H|--------------7--5-----------------------------------|
G|--------------------7--5--4--------------------------|
D|-----------------------------7--6--4-----------------|
A|--------------------------------------7--5-----------|
E|--------------------------------------------8--7--5--|
×

A melodisk moll
6.pos.

1.

2.

3.

4.

5.

6.

7.

8.

9.

10.

11.

12.

  • E
  • A
  • D
  • G
  • H
  • E



A melodisk moll 6. posisjon

OPPOVER:
E|-----------------------------------------------7--8--10--12--|
H|-------------------------------------7--9--10----------------|
G|-------------------------------7--9--------------------------|
D|------------------6--7--9--10--------------------------------|
A|------------7--9---------------------------------------------|
E|--7--8--10---------------------------------------------------|


NEDOVER:
E|--12--10--8--7-----------------------------------------------|
H|----------------10--9--7-------------------------------------|
G|--------------------------9--7-------------------------------|
D|--------------------------------10--9--7--6------------------|
A|---------------------------------------------9--7------------|
E|---------------------------------------------------10--8--7--|
×

A melodisk moll
11.pos.

9.

10.

11.

12.

13.

14.

15.

16.

17.

18.

19.

20.

  • E
  • A
  • D
  • G
  • H
  • E



A melodisk moll 11. posisjon

OPPOVER:
E|----------------------------------------------------------12--14--16--17--|
H|----------------------------------------------12--13--15------------------|
G|----------------------------------11--13--14------------------------------|
D|--------------------------12--14------------------------------------------|
A|----------11--12--14--15--------------------------------------------------|
E|--12--14------------------------------------------------------------------|


NEDOVER:
E|--17--16--14--12----------------------------------------------------------|
H|------------------15--13--12----------------------------------------------|
G|------------------------------14--13--11----------------------------------|
D|------------------------------------------14--12--------------------------|
A|--------------------------------------------------15--14--12--11----------|
E|------------------------------------------------------------------14--12--|
×

A melodisk moll
16.pos.

9.

10.

11.

12.

13.

14.

15.

16.

17.

18.

19.

20.

  • E
  • A
  • D
  • G
  • H
  • E



A melodisk moll 16. posisjon

OPPOVER:
E|------------------------------------------------------16--17--19--20--|
H|----------------------------------------------17--19------------------|
G|----------------------------------16--17--19--------------------------|
D|----------------------16--18--19--------------------------------------|
A|--------------17--19--------------------------------------------------|
E|--17--19--20----------------------------------------------------------|


NEDOVER:
E|--20--19--17--16------------------------------------------------------|
H|------------------19--17----------------------------------------------|
G|--------------------------19--17--16----------------------------------|
D|--------------------------------------19--18--16----------------------|
A|--------------------------------------------------19--17--------------|
E|----------------------------------------------------------20--19--17--|
×

Informasjon som skalaen:


Skala

A melodisk moll

Grunntone

A

Skalatrinn

1 + 1/2 + 1 + 1 + 1 + 1

Skalatoner

A - H - C - D - E - F# - G#

Om
Melodisk moll
skala

Denne skalaen "beynner som moll og slutter som dur". Mer presist kan vi si at den har lavt tredje trinn(som gir moll) og høyt sjette og sjuende trinn. Skalaen har fått sitt navn fordi det høyere sjettetrinnet(sammenlignet med harmonisk moll)gjør den "lettere" å lage melodier med. Skalaen er kanskje mest kjent fra klassisk musikk, men er anvendelig i en rekke sammenhenger, deriblant norsk folkemusikk og jazz.

Anvendelse

Denne skalaen kan ofte brukes i/over sanger som går i moll. I jazzsammenheng er den fin å bruke til å spille på dominant7-akkorder, da den kan gi mange "spenningstoner". Over en G7 dominantakkord kan en for eksempel spille D-moll melodisk skala eller G#-moll melodisk skala. Dette er nok først og fremst for de som har holdt på med skalaer og improvisasjon en stund, og vil muligens låte litt uvant i starten.

Prøv å improvisere sammen med et backingtrack:


GYPSY MOLL