A harmonisk moll skala



SKALA

INFO

BACKING

A harmonisk moll
2.pos.

1.

2.

3.

4.

5.

6.

7.

8.

9.

10.

11.

12.

  • E
  • A
  • D
  • G
  • H
  • E



A harmonisk moll 2. posisjon

OPPOVER:
E|-----------------------------------------4--5--|
H|--------------------------------3--5--6--------|
G|-----------------------2--4--5-----------------|
D|--------------2--3--6--------------------------|
A|-----2--3--5-----------------------------------|
E|--5--------------------------------------------|


NEDOVER:
E|--5--4-----------------------------------------|
H|--------6--5--3--------------------------------|
G|-----------------5--4--2-----------------------|
D|--------------------------6--3--2--------------|
A|-----------------------------------5--3--2-----|
E|--------------------------------------------5--|
×

A harmonisk moll
5.pos.

1.

2.

3.

4.

5.

6.

7.

8.

9.

10.

11.

12.

  • E
  • A
  • D
  • G
  • H
  • E



A harmonisk moll 5. posisjon

OPPOVER:
E|-----------------------------------------4--5--7--8--|
H|-----------------------------------5--6--------------|
G|--------------------------4--5--7--------------------|
D|--------------------6--7-----------------------------|
A|-----------5--7--8-----------------------------------|
E|--5--7--8--------------------------------------------|


NEDOVER:
E|--8--7--5--4-----------------------------------------|
H|--------------6--5-----------------------------------|
G|--------------------7--5--4--------------------------|
D|-----------------------------7--6--------------------|
A|-----------------------------------8--7--5-----------|
E|--------------------------------------------8--7--5--|
×

A harmonisk moll
7.pos.

1.

2.

3.

4.

5.

6.

7.

8.

9.

10.

11.

12.

  • E
  • A
  • D
  • G
  • H
  • E



A harmonisk moll 7. posisjon

OPPOVER:
E|-------------------------------------------------7--8--10--|
H|------------------------------------------9--10------------|
G|--------------------------------7--9--10-------------------|
D|----------------------7--9--10-----------------------------|
A|------------7--8--11---------------------------------------|
E|--7--8--10-------------------------------------------------|


NEDOVER:
E|--10--8--7-------------------------------------------------|
H|------------10--9------------------------------------------|
G|-------------------10--9--7--------------------------------|
D|-----------------------------10--9--7----------------------|
A|---------------------------------------11--8--7------------|
E|-------------------------------------------------10--8--7--|
×

A harmonisk moll
9.pos.

9.

10.

11.

12.

13.

14.

15.

16.

17.

18.

19.

20.

  • E
  • A
  • D
  • G
  • H
  • E



A harmonisk moll 9. posisjon

OPPOVER:
E|-------------------------------------------------------10--12--13--|
H|----------------------------------------9--10--12--13--------------|
G|---------------------------------9--10-----------------------------|
D|----------------------9--10--12------------------------------------|
A|--------------11--12-----------------------------------------------|
E|--10--12--13-------------------------------------------------------|


NEDOVER:
E|--13--12--10-------------------------------------------------------|
H|--------------13--12--10--9----------------------------------------|
G|-----------------------------10--9---------------------------------|
D|------------------------------------12--10--9----------------------|
A|-----------------------------------------------12--11--------------|
E|-------------------------------------------------------13--12--10--|
×

A harmonisk moll
11.pos.

9.

10.

11.

12.

13.

14.

15.

16.

17.

18.

19.

20.

  • E
  • A
  • D
  • G
  • H
  • E



A harmonisk moll 11. posisjon

OPPOVER:
E|----------------------------------------------------------12--13--16--17--|
H|----------------------------------------------12--13--15------------------|
G|--------------------------------------13--14------------------------------|
D|--------------------------12--14--15--------------------------------------|
A|----------11--12--14--15--------------------------------------------------|
E|--12--13------------------------------------------------------------------|


NEDOVER:
E|--17--16--13--12----------------------------------------------------------|
H|------------------15--13--12----------------------------------------------|
G|------------------------------14--13--------------------------------------|
D|--------------------------------------15--14--12--------------------------|
A|--------------------------------------------------15--14--12--11----------|
E|------------------------------------------------------------------13--12--|
×

A harmonisk moll
16.pos.

9.

10.

11.

12.

13.

14.

15.

16.

17.

18.

19.

20.

  • E
  • A
  • D
  • G
  • H
  • E



A harmonisk moll 16. posisjon

OPPOVER:
E|----------------------------------------------------------16--17--19--20--|
H|--------------------------------------------------17--18------------------|
G|--------------------------------------16--17--19--------------------------|
D|------------------------------18--19--------------------------------------|
A|------------------17--19--20----------------------------------------------|
E|--16--17--19--20----------------------------------------------------------|


NEDOVER:
E|--20--19--17--16----------------------------------------------------------|
H|------------------18--17--------------------------------------------------|
G|--------------------------19--17--16--------------------------------------|
D|--------------------------------------19--18------------------------------|
A|----------------------------------------------20--19--17------------------|
E|----------------------------------------------------------20--19--17--16--|
×

Informasjon som skalaen:


Skala

A harmonisk moll

Grunntone

A

Skalatrinn

1 + 1/2 + 1 + 1 + 1/2 + 1 1/2

Skalatoner

A - H - C - D - E - F - G#

Om
Harmonisk moll
skala

Denne skalaen er svært lik den rene mollskalaen, men én tone skiller dem. Dette er skalaens syvende og siste trinn, i musikkteorien kalt septimen. I harmonisk moll har vi et såkalt høyt syvende trinn, dvs. at denne tonen ligger ett bånd høyere/lysere enn i ren mollskala. Grunnen til dette er at vi da får en "ledetone" til grunntonen(skalaens første tone). Harmonisk moll forbindes ofte med østlig musikk, men finnes i alt fra folkemusikk og jazz til metall.

Anvendelse

Denne skalaen passer som navnet sier best til sanger som går i moll(det vil oftest innebære at sangen begynner på en mollakkord). Sjangermessig er det uante muligheter, men har du planer om å bli en metal-shredder er dette en skala du bør kunne godt.

Prøv å improvisere sammen med et backingtrack:


GYPSY MOLL