A heltone skala



SKALA

INFO

A heltone
0.pos.

1.

2.

3.

4.

5.

6.

7.

8.

9.

10.

11.

12.

  • E
  • A
  • D
  • G
  • H
  • E



A heltone 0. posisjon

OPPOVER:
E|--------------------------------------1--3--5--|
H|-----------------------------0--2--4-----------|
G|-----------------------0--2--------------------|
D|-----------------1--3--------------------------|
A|--------0--2--4--------------------------------|
E|--1--3-----------------------------------------|


NEDOVER:
E|--5--3--1--------------------------------------|
H|-----------4--2--0-----------------------------|
G|--------------------2--0-----------------------|
D|--------------------------3--1-----------------|
A|--------------------------------4--2--0--------|
E|-----------------------------------------3--1--|
×

A heltone
4.pos.

1.

2.

3.

4.

5.

6.

7.

8.

9.

10.

11.

12.

  • E
  • A
  • D
  • G
  • H
  • E



A heltone 4. posisjon

OPPOVER:
E|--------------------------------------5--7--|
H|-----------------------------4--6--8--------|
G|-----------------------4--6-----------------|
D|-----------------5--7-----------------------|
A|--------4--6--8-----------------------------|
E|--5--7--------------------------------------|


NEDOVER:
E|--7--5--------------------------------------|
H|--------8--6--4-----------------------------|
G|-----------------6--4-----------------------|
D|-----------------------7--5-----------------|
A|-----------------------------8--6--4--------|
E|--------------------------------------7--5--|
×

A heltone
8.pos.

1.

2.

3.

4.

5.

6.

7.

8.

9.

10.

11.

12.

  • E
  • A
  • D
  • G
  • H
  • E



A heltone 8. posisjon

OPPOVER:
E|---------------------------------------------9--11--|
H|----------------------------------8--10--12---------|
G|---------------------------8--10--------------------|
D|--------------------9--11---------------------------|
A|---------8--10--12----------------------------------|
E|--9--11---------------------------------------------|


NEDOVER:
E|--11--9---------------------------------------------|
H|---------12--10--8----------------------------------|
G|--------------------10--8---------------------------|
D|---------------------------11--9--------------------|
A|----------------------------------12--10--8---------|
E|---------------------------------------------11--9--|
×

A heltone
11.pos.

9.

10.

11.

12.

13.

14.

15.

16.

17.

18.

19.

20.

  • E
  • A
  • D
  • G
  • H
  • E



A heltone 11. posisjon

OPPOVER:
E|--------------------------------------------------11--13--15--17--|
H|--------------------------------------10--12--14------------------|
G|------------------------------10--12------------------------------|
D|----------------------11--13--------------------------------------|
A|----------10--12--14----------------------------------------------|
E|--11--13----------------------------------------------------------|


NEDOVER:
E|--17--15--13--11--------------------------------------------------|
H|------------------14--12--10--------------------------------------|
G|------------------------------12--10------------------------------|
D|--------------------------------------13--11----------------------|
A|----------------------------------------------14--12--10----------|
E|----------------------------------------------------------13--11--|
×

A heltone
16.pos.

9.

10.

11.

12.

13.

14.

15.

16.

17.

18.

19.

20.

  • E
  • A
  • D
  • G
  • H
  • E



A heltone 16. posisjon

OPPOVER:
E|--------------------------------------------------17--19--|
H|--------------------------------------16--18--20----------|
G|------------------------------16--18----------------------|
D|----------------------17--19------------------------------|
A|----------16--18--20--------------------------------------|
E|--17--19--------------------------------------------------|


NEDOVER:
E|--19--17--------------------------------------------------|
H|----------20--18--16--------------------------------------|
G|----------------------18--16------------------------------|
D|------------------------------19--17----------------------|
A|--------------------------------------20--18--16----------|
E|--------------------------------------------------19--17--|
×

Informasjon som skalaen:


Skala

A heltone

Grunntone

A

Skalatrinn

1 + 1 + 1 + 1 + 1

Skalatoner

A - H - C# - D# - F - G

Om
Heltone
skala

Denne skalaen består av 6 toner. Nærmere bestemt heltoner. Dette vil si at skalaen kan spilles på én streng ved hele tiden å gå 2 bånd opp på halsen. Skalaen er nok mest kjent innen filmmusikk og klassisk musikk.

Anvendelse

Denne skalaen er ikke altfor vanlig å bruke til soloer og improvisasjon, men kan være fin som en effekt. I jazzimprovisasjon kan den brukes over dominant7akkorder med forstørret femte trinn, dvs. at C heltoneskala passer til C7#5, D heltoneskala til D7#5 også videre.

Prøv å improvisere sammen med et backingtrack:


Ingen backingtracks til denne skalaen