A dim hel-halv skala



SKALA

INFO

A dim hel-halv
0.pos.

1.

2.

3.

4.

5.

6.

7.

8.

9.

10.

11.

12.

  • E
  • A
  • D
  • G
  • H
  • E



A dim hel-halv 0. posisjon

OPPOVER:
E|--------------------------------------------------1--2--4--5--|
H|-----------------------------------------1--3--4--------------|
G|--------------------------------1--2--4-----------------------|
D|--------------------0--1--3--4--------------------------------|
A|-----------0--2--3--------------------------------------------|
E|--1--2--4-----------------------------------------------------|


NEDOVER:
E|--5--4--2--1--------------------------------------------------|
H|--------------4--3--1-----------------------------------------|
G|-----------------------4--2--1--------------------------------|
D|--------------------------------4--3--1--0--------------------|
A|--------------------------------------------3--2--0-----------|
E|-----------------------------------------------------4--2--1--|
×

A dim hel-halv
5.pos.

1.

2.

3.

4.

5.

6.

7.

8.

9.

10.

11.

12.

  • E
  • A
  • D
  • G
  • H
  • E



A dim hel-halv 5. posisjon

OPPOVER:
E|--------------------------------------------------------7--8--10--11--|
H|----------------------------------------------7--9--10----------------|
G|------------------------------------7--8--10--------------------------|
D|-----------------------6--7--9--10------------------------------------|
A|-----------5--6--8--9-------------------------------------------------|
E|--5--7--8-------------------------------------------------------------|


NEDOVER:
E|--11--10--8--7--------------------------------------------------------|
H|----------------10--9--7----------------------------------------------|
G|--------------------------10--8--7------------------------------------|
D|------------------------------------10--9--7--6-----------------------|
A|-------------------------------------------------9--8--6--5-----------|
E|-------------------------------------------------------------8--7--5--|
×

A dim hel-halv
10.pos.

9.

10.

11.

12.

13.

14.

15.

16.

17.

18.

19.

20.

  • E
  • A
  • D
  • G
  • H
  • E



A dim hel-halv 10. posisjon

OPPOVER:
E|--------------------------------------------------------------------------13--14--16--17--|
H|--------------------------------------------------------------13--15--16------------------|
G|--------------------------------------------------13--14--16------------------------------|
D|----------------------------------12--13--15--16------------------------------------------|
A|------------------11--12--14--15----------------------------------------------------------|
E|--10--11--13--14--------------------------------------------------------------------------|


NEDOVER:
E|--17--16--14--13--------------------------------------------------------------------------|
H|------------------16--15--13--------------------------------------------------------------|
G|------------------------------16--14--13--------------------------------------------------|
D|------------------------------------------16--15--13--12----------------------------------|
A|----------------------------------------------------------15--14--12--11------------------|
E|--------------------------------------------------------------------------14--13--11--10--|
×

A dim hel-halv
13.pos.

9.

10.

11.

12.

13.

14.

15.

16.

17.

18.

19.

20.

  • E
  • A
  • D
  • G
  • H
  • E



A dim hel-halv 13. posisjon

OPPOVER:
E|--------------------------------------------------------------------------16--17--19--20--|
H|--------------------------------------------------------------16--18--19------------------|
G|--------------------------------------------------16--17--19------------------------------|
D|----------------------------------15--16--18--19------------------------------------------|
A|------------------14--15--17--18----------------------------------------------------------|
E|--13--14--16--17--------------------------------------------------------------------------|


NEDOVER:
E|--20--19--17--16--------------------------------------------------------------------------|
H|------------------19--18--16--------------------------------------------------------------|
G|------------------------------19--17--16--------------------------------------------------|
D|------------------------------------------19--18--16--15----------------------------------|
A|----------------------------------------------------------18--17--15--14------------------|
E|--------------------------------------------------------------------------17--16--14--13--|
×

Informasjon som skalaen:


Skala

A dim hel-halv

Grunntone

A

Skalatrinn

1 + 1/2 + 1 + 1/2 + 1 + 1/2 + 1

Skalatoner

A - H - C - D - D# - F - F# - G#

Om
Dim hel-halv
skala

Dim-skalaen(diminished scale) er en symmetrisk hel/halv skala. Det vil si at det er to bånd mellom første og andre tone, ett bånd mellom andre og tredje tone, to bånd mellom tredje og fjerde osv. Denne skalaen skal visstnok ha blitt brukt i persisk musikk så tidlig som på 600-tallet. I vestlig klassisk musikk ble den tatt i bruk fra en gang på 1800-tallet. I dag vil nok mange forbinde denne skalaen med jazz.

Anvendelse

Denne skalaen er fin å bruke for å skape spenning i solospillet ditt. Den brukes først og fremst i kombinasjon med andre skalaer. Innen jazz er den fin å bruke på dominant-akkorder. Du kan for eksempel spille d dim hel/halv skala over en G7. Også innen heavy metal er dim-skalen anvendelig.

Prøv å improvisere sammen med et backingtrack:


Ingen backingtracks til denne skalaen