H moll pentaton skala



SKALA

INFO

BACKING

H moll pentaton
2.pos.

1.

2.

3.

4.

5.

6.

7.

8.

9.

10.

11.

12.

  • E
  • A
  • D
  • G
  • H
  • E



H moll pentaton 2. posisjon

OPPOVER:
E|--------------------------------2--5--|
H|--------------------------3--5--------|
G|--------------------2--4--------------|
D|--------------2--4--------------------|
A|--------2--5--------------------------|
E|--2--5--------------------------------|


NEDOVER:
E|--5--2--------------------------------|
H|--------5--3--------------------------|
G|--------------4--2--------------------|
D|--------------------4--2--------------|
A|--------------------------5--2--------|
E|--------------------------------5--2--|
×

H moll pentaton
4.pos.

1.

2.

3.

4.

5.

6.

7.

8.

9.

10.

11.

12.

  • E
  • A
  • D
  • G
  • H
  • E



H moll pentaton 4. posisjon

OPPOVER:
E|--------------------------------5--7--|
H|--------------------------5--7--------|
G|--------------------4--7--------------|
D|--------------4--7--------------------|
A|--------5--7--------------------------|
E|--5--7--------------------------------|


NEDOVER:
E|--7--5--------------------------------|
H|--------7--5--------------------------|
G|--------------7--4--------------------|
D|--------------------7--4--------------|
A|--------------------------7--5--------|
E|--------------------------------7--5--|
×

H moll pentaton
7.pos.

1.

2.

3.

4.

5.

6.

7.

8.

9.

10.

11.

12.

  • E
  • A
  • D
  • G
  • H
  • E



H moll pentaton 7. posisjon

OPPOVER:
E|----------------------------------7--10--|
H|---------------------------7--10---------|
G|---------------------7--9----------------|
D|---------------7--9----------------------|
A|---------7--9----------------------------|
E|--7--10----------------------------------|


NEDOVER:
E|--10--7----------------------------------|
H|---------10--7---------------------------|
G|----------------9--7---------------------|
D|----------------------9--7---------------|
A|----------------------------9--7---------|
E|----------------------------------10--7--|
×

H moll pentaton
9.pos.

9.

10.

11.

12.

13.

14.

15.

16.

17.

18.

19.

20.

  • E
  • A
  • D
  • G
  • H
  • E



H moll pentaton 9. posisjon

OPPOVER:
E|---------------------------------------10--12--|
H|-------------------------------10--12----------|
G|------------------------9--11------------------|
D|-----------------9--12-------------------------|
A|----------9--12--------------------------------|
E|--10--12---------------------------------------|


NEDOVER:
E|--12--10---------------------------------------|
H|----------12--10-------------------------------|
G|------------------11--9------------------------|
D|-------------------------12--9-----------------|
A|--------------------------------12--9----------|
E|---------------------------------------12--10--|
×

H moll pentaton
11.pos.

9.

10.

11.

12.

13.

14.

15.

16.

17.

18.

19.

20.

  • E
  • A
  • D
  • G
  • H
  • E



H moll pentaton 11. posisjon

OPPOVER:
E|------------------------------------------12--14--|
H|----------------------------------12--15----------|
G|--------------------------11--14------------------|
D|------------------12--14--------------------------|
A|----------12--14----------------------------------|
E|--12--14------------------------------------------|


NEDOVER:
E|--14--12------------------------------------------|
H|----------15--12----------------------------------|
G|------------------14--11--------------------------|
D|--------------------------14--12------------------|
A|----------------------------------14--12----------|
E|------------------------------------------14--12--|
×

H moll pentaton
14.pos.

9.

10.

11.

12.

13.

14.

15.

16.

17.

18.

19.

20.

  • E
  • A
  • D
  • G
  • H
  • E



H moll pentaton 14. posisjon

OPPOVER:
E|------------------------------------------14--17--|
H|----------------------------------15--17----------|
G|--------------------------14--16------------------|
D|------------------14--16--------------------------|
A|----------14--17----------------------------------|
E|--14--17------------------------------------------|


NEDOVER:
E|--17--14------------------------------------------|
H|----------17--15----------------------------------|
G|------------------16--14--------------------------|
D|--------------------------16--14------------------|
A|----------------------------------17--14----------|
E|------------------------------------------17--14--|
×

H moll pentaton
17.pos.

9.

10.

11.

12.

13.

14.

15.

16.

17.

18.

19.

20.

  • E
  • A
  • D
  • G
  • H
  • E



H moll pentaton 17. posisjon

OPPOVER:
E|------------------------------------------17--19--|
H|----------------------------------17--19----------|
G|--------------------------16--19------------------|
D|------------------16--19--------------------------|
A|----------17--19----------------------------------|
E|--17--19------------------------------------------|


NEDOVER:
E|--19--17------------------------------------------|
H|----------19--17----------------------------------|
G|------------------19--16--------------------------|
D|--------------------------19--16------------------|
A|----------------------------------19--17----------|
E|------------------------------------------19--17--|
×

Informasjon som skalaen:


Skala

H moll pentaton

Grunntone

H

Skalatrinn

1 1/2 + 1 + 1 + 1 1/2

Skalatoner

H - D - E - F# - A

Om
Moll pentaton
skala

Pentatonisk mollskala består av 5 toner. Dette er nok ofte den første skalaen man lærer på gitar siden denne er lett å "se for seg" på gripebrettet. Den har fått navnet moll fordi det er 3 bånd fra første til andre tone i skalaen. I likhet med dur pentaton skala har denne sitt opphav i tradisjonell musikk og folkemusikk.

Anvendelse

Denne skalaen har mange anvendelser. Den er ofte den første skalaen man lærer for å spille solo over en blues. Vil man for eksempel spille solo over leksjonen Blueskomp i A, passer A-moll pentatonisk skala bra. Skalaen passer også til mye innen metal, rock, pop og jazz.

Prøv å improvisere sammen med et backingtrack:


CANON I D


D DUR DISCO


FUNKI BUNCH


FUNKRYTME 5


IN DA CLUB I HM