G#/Ab moll pentaton skala



SKALA

INFO

G# moll pentaton
1.pos.

1.

2.

3.

4.

5.

6.

7.

8.

9.

10.

11.

12.

  • E
  • A
  • D
  • G
  • H
  • E



Giss moll pentaton 1. posisjon

OPPOVER:
E|--------------------------------2--4--|
H|--------------------------2--4--------|
G|--------------------1--4--------------|
D|--------------1--4--------------------|
A|--------2--4--------------------------|
E|--2--4--------------------------------|


NEDOVER:
E|--4--2--------------------------------|
H|--------4--2--------------------------|
G|--------------4--1--------------------|
D|--------------------4--1--------------|
A|--------------------------4--2--------|
E|--------------------------------4--2--|
×

G# moll pentaton
4.pos.

1.

2.

3.

4.

5.

6.

7.

8.

9.

10.

11.

12.

  • E
  • A
  • D
  • G
  • H
  • E



Giss moll pentaton 4. posisjon

OPPOVER:
E|--------------------------------4--7--|
H|--------------------------4--7--------|
G|--------------------4--6--------------|
D|--------------4--6--------------------|
A|--------4--6--------------------------|
E|--4--7--------------------------------|


NEDOVER:
E|--7--4--------------------------------|
H|--------7--4--------------------------|
G|--------------6--4--------------------|
D|--------------------6--4--------------|
A|--------------------------6--4--------|
E|--------------------------------7--4--|
×

G# moll pentaton
6.pos.

1.

2.

3.

4.

5.

6.

7.

8.

9.

10.

11.

12.

  • E
  • A
  • D
  • G
  • H
  • E



Giss moll pentaton 6. posisjon

OPPOVER:
E|--------------------------------7--9--|
H|--------------------------7--9--------|
G|--------------------6--8--------------|
D|--------------6--9--------------------|
A|--------6--9--------------------------|
E|--7--9--------------------------------|


NEDOVER:
E|--9--7--------------------------------|
H|--------9--7--------------------------|
G|--------------8--6--------------------|
D|--------------------9--6--------------|
A|--------------------------9--6--------|
E|--------------------------------9--7--|
×

G# moll pentaton
8.pos.

1.

2.

3.

4.

5.

6.

7.

8.

9.

10.

11.

12.

  • E
  • A
  • D
  • G
  • H
  • E



Giss moll pentaton 8. posisjon

OPPOVER:
E|-------------------------------------9--11--|
H|------------------------------9--12---------|
G|-----------------------8--11----------------|
D|----------------9--11-----------------------|
A|---------9--11------------------------------|
E|--9--11-------------------------------------|


NEDOVER:
E|--11--9-------------------------------------|
H|---------12--9------------------------------|
G|----------------11--8-----------------------|
D|-----------------------11--9----------------|
A|------------------------------11--9---------|
E|-------------------------------------11--9--|
×

G# moll pentaton
11.pos.

9.

10.

11.

12.

13.

14.

15.

16.

17.

18.

19.

20.

  • E
  • A
  • D
  • G
  • H
  • E



Giss moll pentaton 11. posisjon

OPPOVER:
E|------------------------------------------11--14--|
H|----------------------------------12--14----------|
G|--------------------------11--13------------------|
D|------------------11--13--------------------------|
A|----------11--14----------------------------------|
E|--11--14------------------------------------------|


NEDOVER:
E|--14--11------------------------------------------|
H|----------14--12----------------------------------|
G|------------------13--11--------------------------|
D|--------------------------13--11------------------|
A|----------------------------------14--11----------|
E|------------------------------------------14--11--|
×

G# moll pentaton
13.pos.

9.

10.

11.

12.

13.

14.

15.

16.

17.

18.

19.

20.

  • E
  • A
  • D
  • G
  • H
  • E



Giss moll pentaton 13. posisjon

OPPOVER:
E|------------------------------------------14--16--|
H|----------------------------------14--16----------|
G|--------------------------13--16------------------|
D|------------------13--16--------------------------|
A|----------14--16----------------------------------|
E|--14--16------------------------------------------|


NEDOVER:
E|--16--14------------------------------------------|
H|----------16--14----------------------------------|
G|------------------16--13--------------------------|
D|--------------------------16--13------------------|
A|----------------------------------16--14----------|
E|------------------------------------------16--14--|
×

G# moll pentaton
16.pos.

9.

10.

11.

12.

13.

14.

15.

16.

17.

18.

19.

20.

  • E
  • A
  • D
  • G
  • H
  • E



Giss moll pentaton 16. posisjon

OPPOVER:
E|------------------------------------------16--19--|
H|----------------------------------16--19----------|
G|--------------------------16--18------------------|
D|------------------16--18--------------------------|
A|----------16--18----------------------------------|
E|--16--19------------------------------------------|


NEDOVER:
E|--19--16------------------------------------------|
H|----------19--16----------------------------------|
G|------------------18--16--------------------------|
D|--------------------------18--16------------------|
A|----------------------------------18--16----------|
E|------------------------------------------19--16--|
×

Informasjon som skalaen:


Skala

Giss moll pentaton

Grunntone

G#

Skalatrinn

1 1/2 + 1 + 1 + 1 1/2

Skalatoner

G# - H - C# - D# - F#

Om
Moll pentaton
skala

Pentatonisk mollskala består av 5 toner. Dette er nok ofte den første skalaen man lærer på gitar siden denne er lett å "se for seg" på gripebrettet. Den har fått navnet moll fordi det er 3 bånd fra første til andre tone i skalaen. I likhet med dur pentaton skala har denne sitt opphav i tradisjonell musikk og folkemusikk.

Anvendelse

Denne skalaen har mange anvendelser. Den er ofte den første skalaen man lærer for å spille solo over en blues. Vil man for eksempel spille solo over leksjonen Blueskomp i A, passer A-moll pentatonisk skala bra. Skalaen passer også til mye innen metal, rock, pop og jazz.

Prøv å improvisere sammen med et backingtrack:


Ingen backingtracks til denne skalaen