Shalala

[Bjørn Eidsvåg]

INTRO 
    E                        A
e|-------4--4-------2--0--|-------4--4-------2--0--|
B|------------------------|------------------------|
G|-------4--4-------2--1--|-------4--4-------2--1--|
D|------------------------|------------------------|
A|------------------------|--0----------0----------|
E|--0----------0----------|------------------------|

    E                        H7      E
e|-------4--4-------2--0--|--2--2----0-------------|
B|------------------------|------------------------|
G|-------4--4-------2--1--|--2--2----1-------------|
D|------------------------|------------------------|
A|------------------------|--2--2------------------|
E|--0----------0----------|----------0-------------|


1. VERS
E               A    
 Livet ekje akkurat et ball,
E                      H7
 men det e nå verdt en liten trall.
E                     A     Am
 Eg ekje flink med halleluja,
E                     H7   E
 men e ein kløppar på shalala.


REFRENG:
E            A
 Shalala lalala lala,   
E            H7
 shalala lalala lalala,
E          A    Am
 shalalala lala la, 
E                     H7      E
 eg har det bra, e fornøyd og gla.


2. VERS:
Når du krype opp i fange mitt, 
og vil bli holdt rundt og trøsta litt.
Og litt itte litt gir meg smilte ditt,
då takkæeg Skaparen for livet mitt.


-REFRENG-

-INTRO-


3. VERS
Når me benke oss rundt dekka bord, 
og dele brød og vin og gode ord,
og unga leke og har det godt, 
då e livet utrulig flott.

-REFRENG x2 -

Videoleksjon: Shalala - Bjørn Eidsvåg [Medlem]



Grep: 

Om grepsdiagrammet


Vi bruker akkorden D dur som eksempel:

  1. De vertikale strekene viser gitarens 6 strenger. Streken til venstre er gitarens dypeste streng.
  2. De horisontale strekene viser gitarens bånd. I utgangspunktet vises gitarhalsens 5 første bånd, men hvis det er grep som tas høyere opp på gitarhalsen vil det på venstre side av diagrammet stå hvilket bånd man kan orientere seg ut fra.
  3. De svarte prikkene viser hvor vi skal legge fingrene på gitarhalsen, og tallene inni prikkene viser hvilke fingre vi skal bruke for å ta grepet.
  4. Bokstavene D A D F# forteller navnet på notene på strengene som spilles.
  5. Øverst på diagrammet ser vi symbolene 'O' og 'X'.
    • O = strengen skal spilles på.
    • X = strengen skal IKKE spilles på.
  6. Til venstre ser vi tallene 1, 2, 3, 4 og 5. Disse viser hvilket bånd som er utgangspunkt for grepet.

D

1.

2.

3.

4.

5.

  • X
  • X
  • O
  •  
  •  
  •  
  • D
  • A
  • D
  • F#




×

E

1.

2.

3.

4.

5.

  • O
  •  
  •  
  •  
  • O
  • O
  • E
  • H
  • E
  • G#
  • H
  • E

A

1.

2.

3.

4.

5.

  • X
  • O
  •  
  •  
  •  
  • O
  • A
  • E
  • A
  • C#
  • E

H 7

1.

2.

3.

4.

5.

  • X
  •  
  •  
  •  
  • O
  •  
  • H
  • D#
  • A
  • H
  • F#

A m

1.

2.

3.

4.

5.

  • X
  • O
  •  
  •  
  •  
  • O
  • A
  • E
  • A
  • C
  • E