To dager med Stein Torleif Bjella-sanger

En visesanger fra Hallingdal har slått seg opp de siste årene og blitt et kjent navn for de fleste, både i bygd og by. Stein Torleif Bjella vokste opp i Ål og har - etter et par perioder i Oslo - slått seg ned i bygda med sin familie. Musikken og tekstene er tett knyttet opp imot livet "yvst i bygde-Norge". Fem album er det blitt og vi setter av et par dager på å bli bedre kjent med Bjella og musikken hans.

Vi har plukket ut fire sanger som står sentralt i hans visekarriere og som også viser litt av Bjellas gitarteknikk, inkludert fingerspill og rytmefeeling. Så da er det bare å stemme kassegitaren, finslipe litt på Ål-dialekten og tralle i vei.

Dagens videoleksjon 1

Alt rundt er det samma

Ingen dum start på helgen å lære seg Bjellas behagelige og ettertenksomme låt "Alt rundt er det samma". Den er fra albumet "Gode Liv" som kom ut i 2016. Åpningsriffet er det lurt å bruke litt ekstra tid på å lære seg godt, siden det klinger veldig fint. Prøv gjerne å stemme ned gitaren en heltone(to bånd dypere) for å få det til å klinge som originalen.


Loading the player...

 


Tabs / besifring:

Alt rundt er det samma [Stein Torleif Bjella]

INTRO/AVSLUTNING:
d|----------0---------------|----------0---------------|
A|-------0-----3------------|-------0-----2------------|
F|-------0------------------|-------0------------------| 
C|-------2------------------|-------2------------------|
G|-------2------------------|-------2------------------|
D|-0-----0------------------|-0-----0------------------|
   *     *     *     *        *     *     *     *     

d|----------0---------------|--------------------------|
A|-------0-----1--0---------|--------------------------|
F|-------0-----------2--0---|--------------------------| 
C|-------2------------------|-0h2-0h2-0h2-0------------|
G|-------2------------------|-3---3---3---2------------|
D|-0-----0------------------|-------------3------------|
   *     *     *     *        *     *     *     * 


VERS 1:
Am           D            Am
 Fått ei venninde nord i skogen
          D              G 
Me stemna fram som brøyteplogen
      G/F#                Em
Passa på at ingenting går sundt
       C                        Em
Alt er betre enn å stresse rundt


VERS 2:
Am        D            Am
 Me hoppa over midtlivskrisa
      D                G 
Høyre roleg jøno Lomnæsvisa
        G/F#                Em
Ska ein del te å stoppe uss no
    C                    Am    G/H  
Ein klem og me er likegod


REFRENG:
C                   G
 Få kvile i ein anna
     Fsus2        Em  
Alt rundt er det samma


INTRO


VERS 3:
Am          D            Am
 Kjærleiken er jo ingen spøk
       D                   G
Korkje her ell i tettbygde strøk
            G/F#              Em
Redd for å spørja og ikkje ha drag
    C                      Am    G/H  
So redd for å bi vraka ein dag


REFRENG:
C                   G
 Få kvile i ein anna
     Fsus2          Em
Alt rundt er det samma


VERS 4:
Am       D                   Am
 E hugsa fyrste gongen e såg deg
          D                  G
 Du lyste upp og e tenkte at e
        G/F#                  Em
 Kan gå heim det her er ingen vits
C                 Am        G/H  
 So såg du meg og vips


REFRENG:
C                   G
 Få kvile i ein anna
     Fsus2              Am   G/H
Alt rundt er det samma


C                   G
 Få kvile i ein anna
    Fsus2             G
Alt rundt er det samma
    Fsus2             G
Alt rundt er det samma
    Fsus2             G
Alt rundt er det samma


AVSLUTNING: Samme som intro

Alt rundt er det samma [Stein Torleif Bjella]


INTRO/AVSLUTNING:
d|----------0---------------|----------0---------------|
A|-------0-----3------------|-------0-----2------------|
F|-------0------------------|-------0------------------| 
C|-------2------------------|-------2------------------|
G|-------2------------------|-------2------------------|
D|-0-----0------------------|-0-----0------------------|
   *     *     *     *        *     *     *     *     

d|----------0---------------|--------------------------|
A|-------0-----1--0---------|--------------------------|
F|-------0-----------2--0---|--------------------------| 
C|-------2------------------|-0h2-0h2-0h2-0------------|
G|-------2------------------|-3---3---3---2------------|
D|-0-----0------------------|-------------3------------|
   *     *     *     *        *     *     *     * 


VERS 1:
Am           D            Am
 Fått ei venninde nord i skogen
          D              G 
Me stemna fram som brøyteplogen
      G/F#                Em
Passa på at ingenting går sundt
       C                        Em
Alt er betre enn å stresse rundt


VERS 2:
Am        D            Am
 Me hoppa over midtlivskrisa
      D                G 
Høyre roleg jøno Lomnæsvisa
        G/F#                Em
Ska ein del te å stoppe uss no
    C                    Am    G/H  
Ein klem og me er likegod


REFRENG:
C                   G
 Få kvile i ein anna
     Fsus2        Em  
Alt rundt er det samma


INTRO


VERS 3:
Am          D            Am
 Kjærleiken er jo ingen spøk
       D                   G
Korkje her ell i tettbygde strøk
            G/F#              Em
Redd for å spørja og ikkje ha drag
    C                      Am    G/H  
So redd for å bi vraka ein dag


REFRENG:
C                   G
 Få kvile i ein anna
     Fsus2          Em
Alt rundt er det samma


VERS 4:
Am       D                   Am
 E hugsa fyrste gongen e såg deg
          D                  G
 Du lyste upp og e tenkte at e
        G/F#                  Em
 Kan gå heim det her er ingen vits
C                 Am        G/H  
 So såg du meg og vips


REFRENG:
C                   G
 Få kvile i ein anna
     Fsus2              Am   G/H
Alt rundt er det samma


C                   G
 Få kvile i ein anna
    Fsus2             G
Alt rundt er det samma
    Fsus2             G
Alt rundt er det samma
    Fsus2             G
Alt rundt er det samma


AVSLUTNING: Samme som intro
×

Se video, tabs, grep og alt annet til Alt rundt er det samma på videosiden [medlem]

Dagens videoleksjon 2

Tiger på sundretur

På det første albumet Bjella ga ut i 2009 - "Heidersmann" -finner vi sangen "Tiger på sundretur". Denne sangen er en fin skildring av oppvekst. Sundre er sentrum i Ål og tigeren må vel være Bjella selv.


Loading the player...

 


Tabs / besifring:

Tiger på sundretur [Stein Torleif Bjella]

   D                 D7
   *        *        *        *   
e|-2-----------------2-------------------|
H|-3-----------------1-------------------|
G|-2-----------------2-------------------| 
D|-0-----------------0-------------------|
A|----------0----------------------------|
E|---------------------------------------|
                       Skulle gått ein tur te


   G                 C        D           G                 C        D
   *        *        *        *           *        *        *        *  
e|-3-----------------0--------2---------|-3-----------------0--------2---------|
H|-3-----------------1--------3---------|-3-----------------1--------3---------|
G|-0--------------0--0--------2---------|-0--------------0--0--------2---------| 
D|-0-----------0-----2--------0---------|-0-----------0-----2--------0---------|
A|-2--------0h2------3------------------|-2--------0h2------3------------------|
E|-3------------------------------------|-3------------------------------------|
   Sundre                      berre for å gå.                So eg slepp å stå og 


   Em                C        D           G                 D
   *        *        *        *           *        *        *        *   
e|-0-----------------0--------2---------|-3-----------------2------------------|
H|-0--------0--------1--------3---------|-3--------3--------3------------------|
G|-0-----------0-----0--------2---------|-0-----------0-----2------------------| 
D|-2--------------2--2--------0---------|-0--------------0--0------------------|
A|-2-----------------3------------------|-2-----------------3------------------|
E|-0------------------------------------|-3------------------------------------|
   undre              om det va noko eg burde sjå.  



D7                      G       
 Skulle gått ein tur te Sundre
C   D            G
     berre for å gå.
C      D              Em
 So eg slepp å stå og undre
C          D             G
 om det va noko eg burde sjå.
 

D                   G
 Det er ingenting å le tå
C               D          G
 det har skjedd store ting før.
C          D          Em
 Eg mangla ord når eg ser på
C      D              G
 sikre kara som alder spør.


D                    C
 Eg bur yvst i bygde-Norge
D                        G
 ha liggji lengji nok på lur.
C                      Hm
 No spankulera eg over torget
C         D        C       G     
 her kjem Tiger på sundretur.


D7                G
 Svinga rundt ved Esso
C      D          G
   det gløda inni meg.
C          D       Em
 No tek eg fyr, so det so
C      D         G     
 hokus pokus vil skje.


D                    C
 Eg er disponert for framgang
D                       G
 det er kje slik som du trur.
C                    Hm
   Like før eg treng brannmann.
C          D       G        
 Eg er kje den som snur.


D                       C
 Skulle gått ein tur te Sundre
D             G
  berre for å gå.
C                      Em
  So eg slepp å stå og undre
C          D             G     
 om det va noko eg burde sjå.


D7                   G
 Vakla mellom HÅP og Beijing
C              D           G
 dei skulle ha slått seg i lag
C     D             Em
  med turing og med frelsing
C           D          G    
 so rekk du alt på ein dag.


D                     C
 Om du er engel eller svin
D                    G
 om du er blid eller sur
C                 Hm
 kinapub med pinsevennin
C         D        C         G
 her kjem Tiger på sundretur.


D7                      G
 Skulle gått ein tur te Sundre
C  D             G
     berre for å gå.
C      D              Em          
 So eg slepp å stå og undre
C          D             G       
 om det va noko eg burde sjå.


D                       C      
 Skulle gått ein tur te Sundre
D                      G
 berre tatt ein kort visitt.
C                    Em
 So eg slepp å gå og undre
C        D               G
  om det har skjedd noko nytt.

Tiger på sundretur [Stein Torleif Bjella]


   D                 D7
   *        *        *        *   
e|-2-----------------2-------------------|
H|-3-----------------1-------------------|
G|-2-----------------2-------------------| 
D|-0-----------------0-------------------|
A|----------0----------------------------|
E|---------------------------------------|
                       Skulle gått ein tur te


   G                 C        D           G                 C        D
   *        *        *        *           *        *        *        *  
e|-3-----------------0--------2---------|-3-----------------0--------2---------|
H|-3-----------------1--------3---------|-3-----------------1--------3---------|
G|-0--------------0--0--------2---------|-0--------------0--0--------2---------| 
D|-0-----------0-----2--------0---------|-0-----------0-----2--------0---------|
A|-2--------0h2------3------------------|-2--------0h2------3------------------|
E|-3------------------------------------|-3------------------------------------|
   Sundre                      berre for å gå.                So eg slepp å stå og 


   Em                C        D           G                 D
   *        *        *        *           *        *        *        *   
e|-0-----------------0--------2---------|-3-----------------2------------------|
H|-0--------0--------1--------3---------|-3--------3--------3------------------|
G|-0-----------0-----0--------2---------|-0-----------0-----2------------------| 
D|-2--------------2--2--------0---------|-0--------------0--0------------------|
A|-2-----------------3------------------|-2-----------------3------------------|
E|-0------------------------------------|-3------------------------------------|
   undre              om det va noko eg burde sjå.  



D7                      G       
 Skulle gått ein tur te Sundre
C   D            G
     berre for å gå.
C      D              Em
 So eg slepp å stå og undre
C          D             G
 om det va noko eg burde sjå.
 

D                   G
 Det er ingenting å le tå
C               D          G
 det har skjedd store ting før.
C          D          Em
 Eg mangla ord når eg ser på
C      D              G
 sikre kara som alder spør.


D                    C
 Eg bur yvst i bygde-Norge
D                        G
 ha liggji lengji nok på lur.
C                      Hm
 No spankulera eg over torget
C         D        C       G     
 her kjem Tiger på sundretur.


D7                G
 Svinga rundt ved Esso
C      D          G
   det gløda inni meg.
C          D       Em
 No tek eg fyr, so det so
C      D         G     
 hokus pokus vil skje.


D                    C
 Eg er disponert for framgang
D                       G
 det er kje slik som du trur.
C                    Hm
   Like før eg treng brannmann.
C          D       G        
 Eg er kje den som snur.


D                       C
 Skulle gått ein tur te Sundre
D             G
  berre for å gå.
C                      Em
  So eg slepp å stå og undre
C          D             G     
 om det va noko eg burde sjå.


D7                   G
 Vakla mellom HÅP og Beijing
C              D           G
 dei skulle ha slått seg i lag
C     D             Em
  med turing og med frelsing
C           D          G    
 so rekk du alt på ein dag.


D                     C
 Om du er engel eller svin
D                    G
 om du er blid eller sur
C                 Hm
 kinapub med pinsevennin
C         D        C         G
 her kjem Tiger på sundretur.


D7                      G
 Skulle gått ein tur te Sundre
C  D             G
     berre for å gå.
C      D              Em          
 So eg slepp å stå og undre
C          D             G       
 om det va noko eg burde sjå.


D                       C      
 Skulle gått ein tur te Sundre
D                      G
 berre tatt ein kort visitt.
C                    Em
 So eg slepp å gå og undre
C        D               G
  om det har skjedd noko nytt.
×

Se video, tabs, grep og alt annet til Tiger på sundretur på videosiden [medlem]

Artikkel

Heidersmannen Stein Torleif Bjella

Visesanger Stein Torleif Bjella er en av få gitarister som også kan kunsten å skrive gode tekster. Sentralt i låtene er kassegitaren og tekster på hallingdialekt. Bjella har nå etablert seg som én av Norges fremste og mest spennende artister.

 

16 år gammel meldte Stein Torleif seg på gitarkurs ved musikkskolen i Ål. Han hadde kjøpt seg gitar for konfirmasjonspengene og trengte å lære seg instrumentet. Det var også da han begynte å skrive sine første sanger, på engelsk den gang.

Etterhvert ble det økonomistudier i Oslo siden planen var å jobbe i familiebedriften, som drev med salg av dører. Tilbake i Ål startet han bandet "Tolv volt", et britpop-inspirert band som dessverre druknet i mer kommersielle konkurrenter. De gav ut to album: "Auraspray" i 1999 og "Kalas" i 2003.

Etter en ny periode i Oslo pakket Stein Torleif Bjella i 2004 igjen kofferten og reiste med kona hjem til Ål, nærmere bestemt Øvre-Ål. Her fortsatte han å skrive viser på dialekt og i 2009 gav Bjella ut sitt første soloalbum: "Heidersmenn". Som ble mottatt med stor glede av både publikum og presse. Det var noe befriende med en artist som spilte på kassegitar og sang om dagliglivet på dialekt.

Album nummer to, "Vonde visu", kom ut i 2011 og fikk spellemannsprisen for årets visealbum. Gjennombruddet var et faktum og Bjella sa opp sin deltidsstilling som journalist i Hallingdølen. Det ble turnering rundt forbi i Norge og alt fra starten av hadde han med seg Geir Sundstøl på gitar og andre dyktige musikere. I 2013 kom albumet "Heim for å døy" ut. I likhet med de to foregående platene var det Kristian Kristiansen (fra DumDum Boys) som var produsent. Nok en gang var kassegitaren til Bjella sentral, og tekstene var - om mulig - blitt enda bedre.

"Gode Liv" kom ut i 2016 og for det ble han nominert i tre spellemannskategorier: Viser, Årets album og Tekstforfatter. Produsent var Bård ingebrigtsen. I 2017 gav han ut diktsamlingen "Jordsjukantologien" og i 2018 kom et album der Bjella leser noen av disse diktene akkompagnert av musikk. Som vanlig til strålende kritikker.

Stein Torleif Bjella er blitt en dreven låtskriver. En av få her i landet som behersker både å skrive gode melodier og bra tekster. Det er ved hjelp av kassegitaren at melodiene blir til. Som oftest hjemme på kjøkkenet. Bjella legger mye i tekstene og for å få en låt til å "gå opp" er det viktig at teksten sitter godt. Til Musikknyheter.no sier Bjella: "- Jeg må ha gitaren der samtidig som jeg skriver. Mest fordi jeg ikke ser på tekstene mine som poesi, som skal stå alene uten musikk, men som sangtekster. Men jeg har ingen strategi, det kan det fort bli dårlige låter av. Da er jeg redd jeg ikke klarer å angripe temaene slik jeg ønsker".

  • Diskografi
  • Heidersmenn (2009)
  • Vonde visu (2011)
  • Heim for å døy (2013)
  • Gode Liv (2016)
  • Jordsjukantologien (2018)
  •  
  • Bibliografi
  • Jordsjukantologien (2017)
  •  
  • Teater
  • Kan nokon gripe inn (2017)

 
 

Dagens YouTube-video

Bjella på Lindmo

Stein Torleif Bjella framfører "Alt rundt er det samma" på Lindmo, NRK. Klarer du å telle antallet gitarister han har med på scenen?

Dagens YouTube-video

Tiger på sundretur live

En mann, en kassegitar og en scene. Det er enkelt og vakkert når Stein Torleif Bjella framfører Tiger på sundretur.


Neste dag