Dagens videoleksjon 1

Splitter pine

På tide å lære oss DumDum Boys sin største hit: Splitter pine. Låten kom ut i 1989 og blir raskt en landeplage. Det velkjente gitarriffet er sannsynligvis Norgeshistoriens tøffeste riff, men er utfordrende å spille i det tempoet den skal være. Sett av noen timer, dager og uker for å lære deg denne låten. Det er verdt det!


Loading the player...

 


Tabs / besifring:

Splitter pine [DumDum Boys]

HOVEDRIFF:
(Ps: Notene i parentes i siste takt er ikke alltid med)
                         H5                              H5
e|-------------------------------|--------------------------------|
H|-------------------------------|--------------------------------|
G|-----------------------4-------|-----------------------4--------| 
D|---4p3p0-2p0-----------4-------|---4p3p0-2p0-----------4--------|
A|-2-----------2p0-2p0-2-2-------|-2-----------2p0-2p0-2-2--------|
E|-------------------------------|--------------------------------|
   *       *       *       *       *       *       *       *

                         D5        D5          D5       (D5)
e|-------------------------------|--------------------------------|
H|-------------------------------|--------------------------------|
G|-----------------------2-------|-2-----------2--------(2)-------| 
D|-0-4p3p0-2p0-----------0-------|-0-----------0--------(0)-------|
A|-------------2p0-2p0-2---------|------b4----------(b4)------(0)-|
E|-------------------------------|--------------------------------|
   *       *       *       *       *       *       *       *



VERS:
e|-------------------------------|--------------------------------|
H|-------------------------------|--------------------------------|
G|*------------------------------|--------------------------------| 
D|*7/9-9-------9-------9------9--|----7--------7-------7-------7--|
A|-x-x-x-------x-------x------x--|----x--------x-------x-------x--|
E|-5/7-7-------7-------7------7--|----5--------5-------5-------5--|
   *       *       *       *       *       *       *       *


e|-------------------------------|--------------------------------|
H|-------------------------------|--------------------------------|
G|-7/9-9-------9-------9------9--|-------------------------------*| 
D|-x-x-x-------x-------x------x--|-----5-------5-------5-------5-*|x2
A|-5/7-7-------7-------7------7--|-----x-------x-------x-------x--|
E|-------------------------------|-----3-------3-------3-------3--|
   *       *       *       *       *       *       *       *


e|-------------------------------|
H|-------------------------------|
G|-------------------------------| 
D|-7/9---------------------------|
A|-x-x---------------------------|
E|-5/7---------------------------|
   *       *       *       *

   
BRO:
       G5                              E5
e|-------------------------------|--------------------------------|
H|-------------------------------|--------------------------------|
G|-------------------------------|--------------------------------| 
D|-------------------------------|--------------------------------|
A|-----5-------5-------5------5--|-----2-------2-------2-------2--|
E|-----3-------3-------3------3--|-----0-------0-------0-------0--|
   *       *       *       *       *       *       *       *

       H5                              A5
e|-------------------------------|--------------------------------|
H|-------------------------------|--------------------------------|
G|-------------------------------|--------------------------------| 
D|-----4-------4-------4------4--|-----2-------2-------2-------2--|
A|-----2-------2-------2------2--|-----0-------0-------0-------0--|
E|-------------------------------|--------------------------------|
   *       *       *       *       *       *       *       *      


   E5
e|-------------------------------|
H|-------------------------------|
G|-------------------------------| 
D|-------------------------------|
A|-2-----------------------------|
E|-0-----------------------------|
   *       *       *       *       



REFRENG:
   H5                              A5
e|-------------------------------|--------------------------------|
H|-------------------------------|--------------------------------|
G|*------------------------------|--------------------------------| 
D|*4---4---4---4---4---4---4---4-|-2---2---2---2---2---2---2---2--|
A|-2---2---2---2---2---2---2---2-|-0---0---0---0---0---0---0---0--|
E|-------------------------------|--------------------------------|
   *       *       *       *       *       *       *       *


                                 |--------------------------------
   E5                            |Hus 1
e|-------------------------------|--------------------------------|
H|-------------------------------|--------------------------------|
G|-------------------------------|-------------------------------*| 
D|-------------------------------|-0---0---0---0---0---0---0---0-*|x2
A|-2---2---2---2---2---2---2---2-|-x---x---x---x---x---x---x---x--|
E|-0---0---0---0---0---0---0---0-|-3---3---3---3---3---3---3---3--|
   *       *       *       *       *       *       *       *      


   D5    A5   D5     A5  D5  A5
 |--------------------------------
 | Hus 2 
e|-----------------------------|
H|-----------------------------|
G|-2----------2----------2-----| 
D|-0-----2----0------2---0---2-|
A|-------0-----------0-------0-|
E|-----------------------------|
   *       *       *       *    



«Hale» på bro før siste refreng:
   A5   E5                         A5   E5     H5
e|-------------------------------|--------------------------------|
H|-------------------------------|--------------------------------|
G|-------------------------------|--------------------------------| 
D|-2-----------------------------|-2-----------4------------------|
A|-0----2------------------------|-0----2------2------------------|
E|------0------------------------|------0-------------------------|
   *       *       *       *       *       *       *       *                  


e|-------------------------------|--------------------------------|
H|-------------------------------|--------------------------------|
G|-------------------------------|--------------------------------| 
D|-2-----------------------------|-2------------------------------|
A|-0----2------------------------|-0----2-------------------------|
E|------0------------------------|------0-------------------------|
   *       *       *       *       *       *       *       *       



                                 
Splitter Pine [tekst]:

Hei, hvor enn du er i verden
Det er deilig å sløve i skyggen
Hold deg våken, nå skjerpes greiene
Store høvding skvise litt hardere

Mas, mas, mas over hele linja
Mandag hele året
Det er ingenting å le av
Men jeg kan ikke la være
Splitter pi - ine, Splitter pine
Splitter pi - ine, Splitter pine

Jeg har fått nokk av rush trafikk
Og sure passasjerer med vassent blikk
å, Vi lever alle under pisken
Noe sier meg at jeg er helt klar for paradis
Som ligger på ryggen å velter meg å gliser
Mens jeg synger på en salme
Mens alle mann

Mas, mas, mas over hele linja
Mandag hele året
Det er ingenting å le av
Men jeg kan ikke la våre
Splitter pi - ine, Splitter pine
Splitter pi – ine, Splitter pine

Splitter pine [DumDum Boys]


HOVEDRIFF:
(Ps: Notene i parentes i siste takt er ikke alltid med)
                         H5                              H5
e|-------------------------------|--------------------------------|
H|-------------------------------|--------------------------------|
G|-----------------------4-------|-----------------------4--------| 
D|---4p3p0-2p0-----------4-------|---4p3p0-2p0-----------4--------|
A|-2-----------2p0-2p0-2-2-------|-2-----------2p0-2p0-2-2--------|
E|-------------------------------|--------------------------------|
   *       *       *       *       *       *       *       *

                         D5        D5          D5       (D5)
e|-------------------------------|--------------------------------|
H|-------------------------------|--------------------------------|
G|-----------------------2-------|-2-----------2--------(2)-------| 
D|-0-4p3p0-2p0-----------0-------|-0-----------0--------(0)-------|
A|-------------2p0-2p0-2---------|------b4----------(b4)------(0)-|
E|-------------------------------|--------------------------------|
   *       *       *       *       *       *       *       *



VERS:
e|-------------------------------|--------------------------------|
H|-------------------------------|--------------------------------|
G|*------------------------------|--------------------------------| 
D|*7/9-9-------9-------9------9--|----7--------7-------7-------7--|
A|-x-x-x-------x-------x------x--|----x--------x-------x-------x--|
E|-5/7-7-------7-------7------7--|----5--------5-------5-------5--|
   *       *       *       *       *       *       *       *


e|-------------------------------|--------------------------------|
H|-------------------------------|--------------------------------|
G|-7/9-9-------9-------9------9--|-------------------------------*| 
D|-x-x-x-------x-------x------x--|-----5-------5-------5-------5-*|x2
A|-5/7-7-------7-------7------7--|-----x-------x-------x-------x--|
E|-------------------------------|-----3-------3-------3-------3--|
   *       *       *       *       *       *       *       *


e|-------------------------------|
H|-------------------------------|
G|-------------------------------| 
D|-7/9---------------------------|
A|-x-x---------------------------|
E|-5/7---------------------------|
   *       *       *       *

   
BRO:
       G5                              E5
e|-------------------------------|--------------------------------|
H|-------------------------------|--------------------------------|
G|-------------------------------|--------------------------------| 
D|-------------------------------|--------------------------------|
A|-----5-------5-------5------5--|-----2-------2-------2-------2--|
E|-----3-------3-------3------3--|-----0-------0-------0-------0--|
   *       *       *       *       *       *       *       *

       H5                              A5
e|-------------------------------|--------------------------------|
H|-------------------------------|--------------------------------|
G|-------------------------------|--------------------------------| 
D|-----4-------4-------4------4--|-----2-------2-------2-------2--|
A|-----2-------2-------2------2--|-----0-------0-------0-------0--|
E|-------------------------------|--------------------------------|
   *       *       *       *       *       *       *       *      


   E5
e|-------------------------------|
H|-------------------------------|
G|-------------------------------| 
D|-------------------------------|
A|-2-----------------------------|
E|-0-----------------------------|
   *       *       *       *       



REFRENG:
   H5                              A5
e|-------------------------------|--------------------------------|
H|-------------------------------|--------------------------------|
G|*------------------------------|--------------------------------| 
D|*4---4---4---4---4---4---4---4-|-2---2---2---2---2---2---2---2--|
A|-2---2---2---2---2---2---2---2-|-0---0---0---0---0---0---0---0--|
E|-------------------------------|--------------------------------|
   *       *       *       *       *       *       *       *


                                 |--------------------------------
   E5                            |Hus 1
e|-------------------------------|--------------------------------|
H|-------------------------------|--------------------------------|
G|-------------------------------|-------------------------------*| 
D|-------------------------------|-0---0---0---0---0---0---0---0-*|x2
A|-2---2---2---2---2---2---2---2-|-x---x---x---x---x---x---x---x--|
E|-0---0---0---0---0---0---0---0-|-3---3---3---3---3---3---3---3--|
   *       *       *       *       *       *       *       *      


   D5    A5   D5     A5  D5  A5
 |--------------------------------
 | Hus 2 
e|-----------------------------|
H|-----------------------------|
G|-2----------2----------2-----| 
D|-0-----2----0------2---0---2-|
A|-------0-----------0-------0-|
E|-----------------------------|
   *       *       *       *    



«Hale» på bro før siste refreng:
   A5   E5                         A5   E5     H5
e|-------------------------------|--------------------------------|
H|-------------------------------|--------------------------------|
G|-------------------------------|--------------------------------| 
D|-2-----------------------------|-2-----------4------------------|
A|-0----2------------------------|-0----2------2------------------|
E|------0------------------------|------0-------------------------|
   *       *       *       *       *       *       *       *                  


e|-------------------------------|--------------------------------|
H|-------------------------------|--------------------------------|
G|-------------------------------|--------------------------------| 
D|-2-----------------------------|-2------------------------------|
A|-0----2------------------------|-0----2-------------------------|
E|------0------------------------|------0-------------------------|
   *       *       *       *       *       *       *       *       



                                 
Splitter Pine [tekst]:

Hei, hvor enn du er i verden
Det er deilig å sløve i skyggen
Hold deg våken, nå skjerpes greiene
Store høvding skvise litt hardere

Mas, mas, mas over hele linja
Mandag hele året
Det er ingenting å le av
Men jeg kan ikke la være
Splitter pi - ine, Splitter pine
Splitter pi - ine, Splitter pine

Jeg har fått nokk av rush trafikk
Og sure passasjerer med vassent blikk
å, Vi lever alle under pisken
Noe sier meg at jeg er helt klar for paradis
Som ligger på ryggen å velter meg å gliser
Mens jeg synger på en salme
Mens alle mann

Mas, mas, mas over hele linja
Mandag hele året
Det er ingenting å le av
Men jeg kan ikke la våre
Splitter pi - ine, Splitter pine
Splitter pi – ine, Splitter pine
×

Se video, tabs, grep og alt annet til Splitter pine på videosiden [medlem]

Dagens videoleksjon 2

Englefjes

Året etter Splitter pine, i 1990, gir DumDum Boys ut albumet Pstereo og blant sporene er låten Englefjes. Denne sangen er hitlåten på den legendariske norske filmen Døden på Oslo S.


Loading the player...

 


Tabs / besifring:

Englefjes [DumDum Boys]

INTRO:
    F 
e|-----------------------------------|----------------------------------|
H|------6---5-----------6---5--------|----------------------------------|
G|*-----5---5-----5-----5---5---5----|----------------------------------|
D|*---------------7-------------7----|----------------------------------|
A|--8--------------------------------|----------------------------------|
E|-----------------------------------|----------------------------------|
    *       *       *       *          *       *       *       *       

   Am7                                G          C/G
e|----------------------------------|-----------------------------------|
H|-------------1--------------------|-----0-------1---------------------|
G|---------0---0--------------------|-----0-------0--------------------*|
D|-----2-------2--------------------|-----0-------2--------------------*| 2x
A|-0--------------------------------|-----------------------------------|
E|----------------------------------|-3---------------------------------|
   *       *       *       *          *       *       *       *      
   
      
VERS 1:
   F 
e|----------------------------------|----------------------------------|
H|-----6---5-----------6---5--------|----------------------------------|
G|-----5---5---5-------5---5---5----|----------------------------------|
D|-------------7---------------7----|----------------------------------|
A|-8--------------------------------|----------------------------------|
E|----------------------------------|----------------------------------|
   *       *       *       *          *       *       *       *       
                   Bor det no`n i    osten på him'len
                                                                     
   Am7                                G          C/G
e|----------------------------------|----------------------------------|
H|-------------1--------------------|-----0-------1--------------------|
G|---------0---0--------------------|-----0-------0--------------------|
D|-----2-------2--------------------|-----0-------2--------------------| 2x
A|-0--------------------------------|----------------------------------|
E|----------------------------------|-3--------------------------------|
   *       *       *       *          *       *       *       *  
                          som ser    husene          fryse,

   F 
e|----------------------------------|----------------------------------|
H|-----6---5-----------6---5--------|----------------------------------|
G|-----5---5---5-------5---5---5----|----------------------------------|
D|-------------7---------------7----|----------------------------------|
A|-8--------------------------------|----------------------------------|
E|----------------------------------|----------------------------------|
   *       *       *       *          *       *       *       *       
                       som ser at   gatene er blinde                         
                                                   
   Am7                                Hb          
e|----------------------------------|----------------------------------|
H|-------------1--------------------|----------------------------------|
G|---------0---0--------------------|-7---7---7---7---7---7---7--------|
D|-----2-------2--------------------|-8---8---8---8---8---8---8--------| 
A|-0--------------------------------|-8---8---8---8---8---8---8--------|
E|----------------------------------|-6---6---6---6---6---6---6--------|
   *       *       *       *          *       *       *       *  
                         og streifer døgnet  rundt    zikk - zakk

   F                       C                 F/C  C  F/C  C       Am
e|----------------------------------|-----------------------------------|
H|-----------------------------5----|(5)------6---5---6---5-------------|
G|-2-------2-------2-----------5----|(5)------5---5---5---5-------5-----|
D|-3-------3-------3-----------5----|(5)------7---5---7---5-------7-----|
A|-3-------3-------3----------------|-----------------------------7-----|
E|-1-------1-------1-------8--------|-----------------------------5-----|
   *       *       *       *          *       *       *       *      
      
  (Am)                                Hb
e|----------------------------------|----------------------------------|
H|----------------------------------|----------------------------------|
G|(5)----------5---5-------5--------|-7---7---7---7---7---7---7--------|
D|(7)----------7---7-------7--------|-8---8---8---8---8---8---8--------|
A|(7)----------7---7-------7--------|-8---8---8---8---8---8---8--------|
E|(5)----------5---5-------5--------|-6---6---6---6---6---6---6--------|
   *       *       *       *          *       *       *       *         
             og  tusener   av        biler   halser  like bak?



REFRENG:
   F  Fsus    Fsus7    F      Fsus       Fsus7    F ---
e|----------------------------------|----------------------------------|
H|----------------------------------|----------------------------------|
G|-------------8--------------------|-----8---------------8------------|
D|-7---8-------8-------7-------8----|-----8-------7---8---8---8---7----|
A|-8---8---------------8-------8----|-------------8---8-------8---8----|
E|----------------------------------|----------------------------------|
   *       *       *       *          *       *       *       *         
          Jeg     går      i          ba - ne 
   
   
   Hb         Hbsus                   Hb         Hbsus
e|----------------------------------|----------------------------------|
H|----------------------------------|----------------------------------|
G|-----7-------8-----------8--------|-----7-------8-----------8--------|
D|----------------------------------|----------------------------------|
A|-8-----------8-----------8--------|-8-----------8-----------8--------|
E|-6-------6---6-------6---6--------|-6-------6---6-------6---6--------|
   *       *       *       *          *       *       *       *         
       nøster en  tynn    tråd,          en      med   langt hår.


   F  Fsus    Fsus7    F      Fsus       Fsus7    F ---
e|----------------------------------|----------------------------------|
H|----------------------------------|----------------------------------|
G|-------------8--------------------|-----8---------------8------------|
D|-7---8-------8-------7-------8----|-----8-------7---8---8---8---7----|
A|-8---8---------------8-------8----|-------------8---8-------8---8----|
E|----------------------------------|----------------------------------|
   *       *       *       *          *       *       *       *         
          Jeg     går      i          ba - ne    
   
   
   Hb         Hbsus                   Hb         Hbsus   
e|----------------------------------|----------------------------------|
H|----------------------------------|----------------------------------|
G|-----7-------8-----------8--------|-----7-------8--------------------|
D|----------------------------------|----------------------------------|
A|-8-----------8-----------8--------|-8-----------8--------------------|
E|-6-------6---6-------6---6--------|-6-------6---6-------6---4-/------|
   *       *       *       *          *       *       *       *     
         Du     er so  -  la        jeg    er          må -   nen
 
 
 
VERS 2:
F
 Tiden får rynker.
Am          G        C/G
 Den er lett som en fjær,
F
 blåser bort mens jeg venter,
Am          Hb
 lister seg ut mens jeg sover,

F - C

Am      Hb
  og vi fanger noen timer.



REFRENG:
F
 Jeg går i bane;
Hb
 nøster en tynn tråd, en med langt hår.
F
 Jeg går i bane.
Hb                     
 Du er sola - jeg er månen.


MELLOMSPILL: 
| F    | F - Hb | F    | C - Hb | F     | C     | C -   Csus4  | Hb   |


VERS 3:
F
 Hvor er du hen når du forsvinner?
Am            G        C/G
 Om det bare aldri ble morgen!
F
 Englefjes, ingen vinger.
Am          Hb
 Danser bak lukkede øyne.
 
F - C

Am                Hb
  Søndag morgen - natten gir meg ikke fred!
  
  

REFRENG:
F
 Jeg går i bane;
Hb
 nøster en tynn tråd, en med langt hår.
F
 Jeg går i bane.
Hb                     
 Du er sola - jeg er månen.
 
 
 
REFRENG:
F
 Jeg går i bane;
Hb
 nøster en tynn tråd, en med langt hår.
F
 Jeg går i bane.
Hb                     
 Du er sola - jeg er månen.
 
 
("Jeg går i bane" gjentas med samme akkordrekke)

Englefjes [DumDum Boys]


INTRO:
    F 
e|-----------------------------------|----------------------------------|
H|------6---5-----------6---5--------|----------------------------------|
G|*-----5---5-----5-----5---5---5----|----------------------------------|
D|*---------------7-------------7----|----------------------------------|
A|--8--------------------------------|----------------------------------|
E|-----------------------------------|----------------------------------|
    *       *       *       *          *       *       *       *       

   Am7                                G          C/G
e|----------------------------------|-----------------------------------|
H|-------------1--------------------|-----0-------1---------------------|
G|---------0---0--------------------|-----0-------0--------------------*|
D|-----2-------2--------------------|-----0-------2--------------------*| 2x
A|-0--------------------------------|-----------------------------------|
E|----------------------------------|-3---------------------------------|
   *       *       *       *          *       *       *       *      
   
      
VERS 1:
   F 
e|----------------------------------|----------------------------------|
H|-----6---5-----------6---5--------|----------------------------------|
G|-----5---5---5-------5---5---5----|----------------------------------|
D|-------------7---------------7----|----------------------------------|
A|-8--------------------------------|----------------------------------|
E|----------------------------------|----------------------------------|
   *       *       *       *          *       *       *       *       
                   Bor det no`n i    osten på him'len
                                                                     
   Am7                                G          C/G
e|----------------------------------|----------------------------------|
H|-------------1--------------------|-----0-------1--------------------|
G|---------0---0--------------------|-----0-------0--------------------|
D|-----2-------2--------------------|-----0-------2--------------------| 2x
A|-0--------------------------------|----------------------------------|
E|----------------------------------|-3--------------------------------|
   *       *       *       *          *       *       *       *  
                          som ser    husene          fryse,

   F 
e|----------------------------------|----------------------------------|
H|-----6---5-----------6---5--------|----------------------------------|
G|-----5---5---5-------5---5---5----|----------------------------------|
D|-------------7---------------7----|----------------------------------|
A|-8--------------------------------|----------------------------------|
E|----------------------------------|----------------------------------|
   *       *       *       *          *       *       *       *       
                       som ser at   gatene er blinde                         
                                                   
   Am7                                Hb          
e|----------------------------------|----------------------------------|
H|-------------1--------------------|----------------------------------|
G|---------0---0--------------------|-7---7---7---7---7---7---7--------|
D|-----2-------2--------------------|-8---8---8---8---8---8---8--------| 
A|-0--------------------------------|-8---8---8---8---8---8---8--------|
E|----------------------------------|-6---6---6---6---6---6---6--------|
   *       *       *       *          *       *       *       *  
                         og streifer døgnet  rundt    zikk - zakk

   F                       C                 F/C  C  F/C  C       Am
e|----------------------------------|-----------------------------------|
H|-----------------------------5----|(5)------6---5---6---5-------------|
G|-2-------2-------2-----------5----|(5)------5---5---5---5-------5-----|
D|-3-------3-------3-----------5----|(5)------7---5---7---5-------7-----|
A|-3-------3-------3----------------|-----------------------------7-----|
E|-1-------1-------1-------8--------|-----------------------------5-----|
   *       *       *       *          *       *       *       *      
      
  (Am)                                Hb
e|----------------------------------|----------------------------------|
H|----------------------------------|----------------------------------|
G|(5)----------5---5-------5--------|-7---7---7---7---7---7---7--------|
D|(7)----------7---7-------7--------|-8---8---8---8---8---8---8--------|
A|(7)----------7---7-------7--------|-8---8---8---8---8---8---8--------|
E|(5)----------5---5-------5--------|-6---6---6---6---6---6---6--------|
   *       *       *       *          *       *       *       *         
             og  tusener   av        biler   halser  like bak?



REFRENG:
   F  Fsus    Fsus7    F      Fsus       Fsus7    F ---
e|----------------------------------|----------------------------------|
H|----------------------------------|----------------------------------|
G|-------------8--------------------|-----8---------------8------------|
D|-7---8-------8-------7-------8----|-----8-------7---8---8---8---7----|
A|-8---8---------------8-------8----|-------------8---8-------8---8----|
E|----------------------------------|----------------------------------|
   *       *       *       *          *       *       *       *         
          Jeg     går      i          ba - ne 
   
   
   Hb         Hbsus                   Hb         Hbsus
e|----------------------------------|----------------------------------|
H|----------------------------------|----------------------------------|
G|-----7-------8-----------8--------|-----7-------8-----------8--------|
D|----------------------------------|----------------------------------|
A|-8-----------8-----------8--------|-8-----------8-----------8--------|
E|-6-------6---6-------6---6--------|-6-------6---6-------6---6--------|
   *       *       *       *          *       *       *       *         
       nøster en  tynn    tråd,          en      med   langt hår.


   F  Fsus    Fsus7    F      Fsus       Fsus7    F ---
e|----------------------------------|----------------------------------|
H|----------------------------------|----------------------------------|
G|-------------8--------------------|-----8---------------8------------|
D|-7---8-------8-------7-------8----|-----8-------7---8---8---8---7----|
A|-8---8---------------8-------8----|-------------8---8-------8---8----|
E|----------------------------------|----------------------------------|
   *       *       *       *          *       *       *       *         
          Jeg     går      i          ba - ne    
   
   
   Hb         Hbsus                   Hb         Hbsus   
e|----------------------------------|----------------------------------|
H|----------------------------------|----------------------------------|
G|-----7-------8-----------8--------|-----7-------8--------------------|
D|----------------------------------|----------------------------------|
A|-8-----------8-----------8--------|-8-----------8--------------------|
E|-6-------6---6-------6---6--------|-6-------6---6-------6---4-/------|
   *       *       *       *          *       *       *       *     
         Du     er so  -  la        jeg    er          må -   nen
 
 
 
VERS 2:
F
 Tiden får rynker.
Am          G        C/G
 Den er lett som en fjær,
F
 blåser bort mens jeg venter,
Am          Hb
 lister seg ut mens jeg sover,

F - C

Am      Hb
  og vi fanger noen timer.



REFRENG:
F
 Jeg går i bane;
Hb
 nøster en tynn tråd, en med langt hår.
F
 Jeg går i bane.
Hb                     
 Du er sola - jeg er månen.


MELLOMSPILL: 
| F    | F - Hb | F    | C - Hb | F     | C     | C -   Csus4  | Hb   |


VERS 3:
F
 Hvor er du hen når du forsvinner?
Am            G        C/G
 Om det bare aldri ble morgen!
F
 Englefjes, ingen vinger.
Am          Hb
 Danser bak lukkede øyne.
 
F - C

Am                Hb
  Søndag morgen - natten gir meg ikke fred!
  
  

REFRENG:
F
 Jeg går i bane;
Hb
 nøster en tynn tråd, en med langt hår.
F
 Jeg går i bane.
Hb                     
 Du er sola - jeg er månen.
 
 
 
REFRENG:
F
 Jeg går i bane;
Hb
 nøster en tynn tråd, en med langt hår.
F
 Jeg går i bane.
Hb                     
 Du er sola - jeg er månen.
 
 
("Jeg går i bane" gjentas med samme akkordrekke)
×

Se video, tabs, grep og alt annet til Englefjes på videosiden [medlem]


Portrettet

Kjartan Kristiansen

Født: 1963.
Kjent for: Gitarist i DumDum Boys, låtskriver og produsent.

Kjartan Kristiansen har vært DumDum Boys sin gitarist helt siden starten i 1985, og var også med i Wannskrækk fra oppstarten i 1978.

Som gitarist er Kjartan Kristiansen kjent for sin røffe, riffbaserte gitarstil. Mange mener at åpningsriffet på Splitter pine er tidenes norske gitarriff.

Han fikk i 2009 Spellemannsprisen for årets tekstforfatter, for tekstene på DumDum Boys sitt album Tidsmaskin.



Dagens YouTube-video

Englefjes, live i Bergen i 2012

Dagens YouTube-video

DumDum Boys intervjues på NRK Lydverket i 2004

Veldig interessant dokumentar der medlemmene forteller om bakgrunnen for låter som blant annet En vill en, Splitter pine, Tyven tyven.


Forrige dag