Videoleksjoner

AIN`T TALKING` `BOUT LOVE 

 Artist/band: Van Halen  |  Lærer: Simon Paus Sangolt  |   Metal16.11-18

Loading the player...

Gratis Nivå: 4/10

VIDEOINFO

  • Video: Ain`t Talking` `Bout Love
  • Artist/band: Van Halen
  • Lærer: Simon Paus Sangolt
  • Instrument: Elektrisk
  • Nivå: Nybegynner 4/10
  • Lengde: 6.53 min.
  • Sjanger: Metal
  • Opplastet: 16.11.2018

(Denne tjenesten tilbys av onlinegitar.no. Musikken er gjengitt med tillatelse fra TONO. Uautorisert lenking, videreføring eller kopiering er ulovlig.)

×
    • Simon Paus Sangolt

    • Rock, funk og pop
    • Simon har studert gitar blant annet ved Rytmisk linje ved Universitet i Agder. Han er en allsidig gitarist og aktiv både som live gitarist og i studio.

×



BESIFRING

GREP

RELATERT

LÆRER

VIDEO  

Ain`t Talking` `Bout Love - Van Halen


RIFF 1 (intro/vers):

e|-------------0--1-------|-3----------------------|
H|-------1-----------1----|----3-------------------|
G|*---------2-----------2-|-----------------------*| 
D|*---2-------------------|-----------------------*|
A|-0----------------------|----------3--------2--3-|
E|------------------------|-------3----------------|
   *     *     *     *      *     *     *     *     



RIFF 2 (refreng):
   Am                G
e|------------------------|------------------------|
H|-1--------1--------0----|------------------------|
G|-2--------2--------0----|------------------------| 
D|-2--------2--------0----|------------------------|
A|-0--------0-------------|----------3--------2--3-|
E|------------------------|-------0----------------|
   *     *     *     *      *     *     *     *     

   Am                G
e|------------------------|------------------------|
H|-1--------1--------0----|----1--1/-3--3/-5--5/-8-|
G|-2--------2--------0----|------------------------| 
D|-2--------2--------0----|------------------------|
A|-0--------0-------------|------------------------|
E|------------------------|------------------------|
   *     *     *     *      *     *     *     * 

   Am                G
e|------------------------|------------------------|
H|-1--------1--------0----|------------------------|
G|-2--------2--------0----|------------------------| 
D|-2--------2--------0----|------------------------|
A|-0--------0-------------|----------3--------2--3-|
E|------------------------|-------0----------------|
   *     *     *     *      *     *     *     *     

   Am                G
e|------------------------|------------------------|
H|-1--------1--------0----|------------------------|
G|-2--------2--------0----|------------------------| 
D|-2--------2--------0----|------------------------|
A|-0--------0-------------|------------------------|
E|------------------------|------------------------|
   *     *     *     *      *     *     *     *     



RIFF 3 (outro):
  A5       H5       C5
e|------------------------|------------------------|
H|------------------------|------------------------|
G|*---------4--------5----|------------------------| 
D|*2--------4--------5----|------------------------|
A|-0--------2--------3----|-------------------3--2-|
E|------------------------|-------------0--3-------|
   *     *     *     *      *     *     *     *   

  A5       H5       E5 
e|------------------------|------------------------|
H|------------------------|------------------------|
G|----------4-------------|-----------------------*| 
D|-2--------4-------------|-----------------------*|
A|-0--------2--------2----|------------------------|
E|-------------------0----|------------------------|
   *     *     *     *      *     *     *     *  

  E7#9 
e|------------------------|------------------------|
H|-8----------------------|------------------------|
G|-7----------------------|------------------------| 
D|-6----------------------|------------------------|
A|-7----------------------|------------------------|
E|-0----------------------|------------------------|
   *     *     *     *      *     *     *     *   

Ain`t Talking` `Bout Love - Van Halen


RIFF 1 (intro/vers):

e|-------------0--1-------|-3----------------------|
H|-------1-----------1----|----3-------------------|
G|*---------2-----------2-|-----------------------*| 
D|*---2-------------------|-----------------------*|
A|-0----------------------|----------3--------2--3-|
E|------------------------|-------3----------------|
   *     *     *     *      *     *     *     *     



RIFF 2 (refreng):
   Am                G
e|------------------------|------------------------|
H|-1--------1--------0----|------------------------|
G|-2--------2--------0----|------------------------| 
D|-2--------2--------0----|------------------------|
A|-0--------0-------------|----------3--------2--3-|
E|------------------------|-------0----------------|
   *     *     *     *      *     *     *     *     

   Am                G
e|------------------------|------------------------|
H|-1--------1--------0----|----1--1/-3--3/-5--5/-8-|
G|-2--------2--------0----|------------------------| 
D|-2--------2--------0----|------------------------|
A|-0--------0-------------|------------------------|
E|------------------------|------------------------|
   *     *     *     *      *     *     *     * 

   Am                G
e|------------------------|------------------------|
H|-1--------1--------0----|------------------------|
G|-2--------2--------0----|------------------------| 
D|-2--------2--------0----|------------------------|
A|-0--------0-------------|----------3--------2--3-|
E|------------------------|-------0----------------|
   *     *     *     *      *     *     *     *     

   Am                G
e|------------------------|------------------------|
H|-1--------1--------0----|------------------------|
G|-2--------2--------0----|------------------------| 
D|-2--------2--------0----|------------------------|
A|-0--------0-------------|------------------------|
E|------------------------|------------------------|
   *     *     *     *      *     *     *     *     



RIFF 3 (outro):
  A5       H5       C5
e|------------------------|------------------------|
H|------------------------|------------------------|
G|*---------4--------5----|------------------------| 
D|*2--------4--------5----|------------------------|
A|-0--------2--------3----|-------------------3--2-|
E|------------------------|-------------0--3-------|
   *     *     *     *      *     *     *     *   

  A5       H5       E5 
e|------------------------|------------------------|
H|------------------------|------------------------|
G|----------4-------------|-----------------------*| 
D|-2--------4-------------|-----------------------*|
A|-0--------2--------2----|------------------------|
E|-------------------0----|------------------------|
   *     *     *     *      *     *     *     *  

  E7#9 
e|------------------------|------------------------|
H|-8----------------------|------------------------|
G|-7----------------------|------------------------| 
D|-6----------------------|------------------------|
A|-7----------------------|------------------------|
E|-0----------------------|------------------------|
   *     *     *     *      *     *     *     *   
×
 

Om grepsdiagrammet


Vi bruker akkorden D dur som eksempel:

  1. De vertikale strekene viser gitarens 6 strenger. Streken til venstre er gitarens dypeste streng.
  2. De horisontale strekene viser gitarens bånd. I utgangspunktet vises gitarhalsens 5 første bånd, men hvis det er grep som tas høyere opp på gitarhalsen vil det på venstre side av diagrammet stå hvilket bånd man kan orientere seg ut fra.
  3. De svarte prikkene viser hvor vi skal legge fingrene på gitarhalsen, og tallene inni prikkene viser hvilke fingre vi skal bruke for å ta grepet.
  4. Bokstavene D A D F# forteller navnet på notene på strengene som spilles.
  5. Øverst på diagrammet ser vi symbolene 'O' og 'X'.
    • O = strengen skal spilles på.
    • X = strengen skal IKKE spilles på.
  6. Til venstre ser vi tallene 1, 2, 3, 4 og 5. Disse viser hvilket bånd som er utgangspunkt for grepet.

D

1.

2.

3.

4.

5.

  • X
  • X
  • O
  •  
  •  
  •  
  • D
  • A
  • D
  • F#




×

A m

1.

2.

3.

4.

5.

  • X
  • O
  •  
  •  
  •  
  • O
  • A
  • E
  • A
  • C
  • E

G

1.

2.

3.

4.

5.

  •  
  •  
  • O
  • O
  • O
  •  
  • G
  • H
  • D
  • G
  • H
  • G

A 5

1.

2.

3.

4.

5.

  • X
  • O
  •  
  •  
  • X
  • X
  • A
  • E
  • A

H 5

1.

2.

3.

4.

5.

  • X
  •  
  •  
  •  
  • X
  • X
  • H
  • F#
  • H

C 5

1.

2.

3.

4.

5.

  • X
  •  
  •  
  •  
  • X
  • X
  • C
  • G
  • C

E 5

1.

2.

3.

4.

5.

  • O
  •  
  •  
  • X
  • X
  • X
  • E
  • H
  • E

E 7#9

6.

7.

8.

9.

10.

  • X
  •  
  •  
  •  
  •  
  • X
  • E
  • G#
  • D
  • G

Flere videoleksjoner med Simon Paus Sangolt: