Videoleksjoner

WISH YOU WERE HERE

 Artist/band: Pink Floyd  |  Lærer: Asbjørn Lerheim  |   Rock21.09-18

Loading the player...

   Gratis Nivå: 5/10

VIDEOINFO

  • Video: Wish You Were Here
  • Artist/band: Pink Floyd
  • Lærer: Asbjørn Lerheim
  • Instrument: Akustisk
  • Nivå: Middels 5/10
  • Lengde: 17.46 min.
  • Sjanger: Rock
  • Opplastet: 21.09.2018

(Denne tjenesten tilbys av onlinegitar.no. Musikken er gjengitt med tillatelse fra TONO. Uautorisert lenking, videreføring eller kopiering er ulovlig.)

×
    • Asbjørn Lerheim

    • Jazz, rock, blues
    • Asbjørn har studert jazz ved Norges Musikkhøgskole. Er for tiden aktuell med jazzbandet Chrome Hill der han er gitarist og låtskriver. Er også halvparten av duoen Quite Quiet Project.

×



BESIFRING

GREP

RELATERT

LÆRER

VIDEO  

(NB: D/F# kan byttes ut med D om ønskelig)


INTRO/MELLOMSPILL:
                  Em7                         G
e|----------------3----3--3--3----------------3----3--3--3--|
B|----------------3----3--3--3----------------3----3--3--3--|
G|----------------0----0--0--0-----0----------0----0--0--0--|
D|--------0--2----2----2--2--2--2-----2--0----0----0--0--0--|            
A|----0h2---------2----2--2--2----------------2----2--2--2--|     
E|----------------0----0--0--0----------------3----3--3--3--| 

 
                  Em7                         G
e|----------------3----3--3--3----------------3----3--3--3--|
B|----------------3----3--3--3----------------3----3--3--3--|
G|----------------0----0--0--0-----0----------0----0--0--0--|
D|--------0--2----2----2--2--2--2-----2--0----0----0--0--0--|            
A|----0h2---------2----2--2--2----------------2----2--2--2--|     
E|-3--------------0----0--0--0----------------3----3--3--3--|


                  Em7                         A7sus4  
e|----------------3----3--3--3----------------3----3--3--3--|
B|----------------3----3--3--3----------------3----3--3--3--|
G|----------------0----0--0--0----------------0----0--0--0--|
D|--------0--2----2----2--2--2--2--0----------2----2--2--2--|            
A|----0h2---------2----2--2--2--------2--0----0----0--0--0--|     
E|-3--------------0----0--0--0------------------------------|


                  Em7                         A7sus4                                        
e|----------------3----3--3--3----------------3----3--3--3--|
B|----------------3----3--3--3----------------3----3--3--3--|
G|----------------0----0--0--0----------------0----0--0--0--|
D|--------0--2----2----2--2--2--2--0----------2----2--2--2--|            
A|----0h2---------2----2--2--2--------2--0----0----0--0--0--|     
E|----------------0----0--0--0------------------------------|


               G
e|-------------3----3----3--3--3----3--3--3--3--3-----------|    
B|-------------3----3----3--3--3----3--3--3--3--3-----------|
G|-------------0----0----0--0--0----0--0--0--0--0-----------|
D|-------------0----0----0--0--0----0--0--0--0--0-----------|         
A|----0h2--0---2----2----2--2--2----2--2--2--2--2-----------|
E|-------------3----3----3--3--3----3--3--3--3--3-----------|


Solo 1: Se lenger ned på siden.
Komp under solo: Samme som intro/mellomspill


VERS 1: 
C                        D/F# 
So, so you think you can tell, 
            Am                    G
Heaven from Hell, blue skies from pain. 
                     D/F#                    C                    
Can you tell a green field from a cold steel rail, 
               Am
a smile from a veil, 
                     G
Do you think you can tell? 
 


VERS 2:
                    C                    
Did they get you to trade 
                D/F#
your heroes for ghosts, 
              Am                   G                            
Hot ashes for trees, hot air for a cool breeze, 
                  D/F#
cold comfort for change, 
               C                           
And did you exchange a walk on part in the 
Am                       G
war for a lead role in a cage? 
 

Solo 2:Se under for solo.
Komp under solo: Samme som intro/mellomspill
 
 

REFRENG: 
C                                D/F#
 How I wish, how I wish you were here. 
           Am                                                    
We're just two lost souls swimming in a fish bowl, 
G               D/F#
 year after year,  Running over the same old ground. 
C                                 Am
 What have we found? The same old fears.
              G
Wish you were here! 
 

Intro/mellomspill


Solo 3: Se under for solo. 
Komp under solo: Samme som intro/mellomspill



SOLO 1:
e|--------------------------------------------------|
H|------3------5---3--------------------------------|
G|-2/4-----------4--------4p2p0---------------------| 
D|------------------------------0----------0-0------|
A|-------------------------------------1/2----------|
E|--------------------------------------------------|



e|-3/5--3-------------------------------------------|
H|-3/5--3----3/5--3--0--3/5--3-0--------------------|
G|-----------2/4--2--0--2/4--2-0-4------------------| 
D|-------------------------------5------------------|
A|--------------------------------------------------|
E|--------------------------------------------------|



e|--------------------------------------------------|
H|-----3---5---b5r-p3---3------------3-5------------|
G|-2/4---4------------4-----2----b4-------b4-2------| 
D|--------------------------------------------------|
A|--------------------------------------------------|
E|--------------------------------------------------|



e|--------------------------------------------------|
H|-----3---5----b5r-p3---3--------------------------|
G|-2/4---4-------------4----2-------b4r--2----------| 
D|--------------------------------------------------|
A|--------------------------------------------------|
E|--------------------------------------------------|




SOLO 2:
e|--------------------------------------------------|
H|-10/12-12---10/12-12------10/12-12---10/12-12-----|
G|--------------------------------------------------| 
D|--------------------------------------------------|
A|--------------------------------------------------|
E|--------------------------------------------------|



e|-10/12---10-10------------------------------------|
H|-----------------------10/12-12-12-12--10/12------|
G|--------------------------------------------------| 
D|--------------------------------------------------|
A|--------------------------------------------------|
E|--------------------------------------------------|



e|--------------------------------------------------|
H|-10/12-----10/12-----12/10------------------------|
G|---------------------------12---------------------| 
D|-------------------------------12-12-12/9-12------|
A|--------------------------------------------------|
E|--------------------------------------------------|



e|----------10-----------10--------------/9-12---9--|
H|----10/12--------10/12--------12/10---------------|
G|9-9---------------------------------12------------| 
D|--------------------------------------------------|
A|--------------------------------------------------|
E|--------------------------------------------------|



e|-9/10-9/10-9/10-9/10-----------10------------10---|
H|-------------------------10/12---------10/12------|
G|--------------------------------------------------| 
D|--------------------------------------------------|
A|--------------------------------------------------|
E|--------------------------------------------------|



e|-------------------------7/9--12-----9------------|
H|----10-12/10----10-----------------------8/10-----|
G|-12----------12----12-----------------------------| 
D|--------------------------------------------------|
A|--------------------------------------------------|
E|--------------------------------------------------|



SOLO 3:
e|--------------------------------------------------|
H|---------------------------------10/12-10---------|
G|-7---7/9--------7--7---7/9----------------12------| 
D|---9----------9------9-----------------------12---|
A|--------------------------------------------------|
E|--------------------------------------------------|



e|--------------------------------------------------|
H|--------------------------------------------------|
G|-9---11/12--------7---7---9-------6/7-------------| 
D|----------------9---9---------9-------------------|
A|--------------------------------------------------|
E|--------------------------------------------------|



e|----------------------------10---12/10------------|
H|-----------------10-----/12------------12---------|
G|-9--12-/9-12---------12---------------------------| 
D|--------------------------------------------------|
A|--------------------------------------------------|
E|--------------------------------------------------|



e|--------------------------------------------------|
H|-10/12--10----------10/12--10/12------------------|
G|-----------12-9-----------------------------------| 
D|----------------12--------------------------------|
A|--------------------------------------------------|
E|--------------------------------------------------|



e|-------10-10-----------10-10-----------10-10------|
H|-10/12-----------10/12-----------10/12-------12/--|
G|--------------------------------------------------| 
D|--------------------------------------------------|
A|--------------------------------------------------|
E|--------------------------------------------------|



e|-7/9--12------9---------10--------12--------10----|
H|------------------10/12-----10/12-----10/12-------|
G|--------------------------------------------------| 
D|--------------------------------------------------|
A|--------------------------------------------------|
E|--------------------------------------------------|

Wish You Were Here - Pink Floyd


(NB: D/F# kan byttes ut med D om ønskelig)


INTRO/MELLOMSPILL:
                  Em7                         G
e|----------------3----3--3--3----------------3----3--3--3--|
B|----------------3----3--3--3----------------3----3--3--3--|
G|----------------0----0--0--0-----0----------0----0--0--0--|
D|--------0--2----2----2--2--2--2-----2--0----0----0--0--0--|            
A|----0h2---------2----2--2--2----------------2----2--2--2--|     
E|----------------0----0--0--0----------------3----3--3--3--| 

 
                  Em7                         G
e|----------------3----3--3--3----------------3----3--3--3--|
B|----------------3----3--3--3----------------3----3--3--3--|
G|----------------0----0--0--0-----0----------0----0--0--0--|
D|--------0--2----2----2--2--2--2-----2--0----0----0--0--0--|            
A|----0h2---------2----2--2--2----------------2----2--2--2--|     
E|-3--------------0----0--0--0----------------3----3--3--3--|


                  Em7                         A7sus4  
e|----------------3----3--3--3----------------3----3--3--3--|
B|----------------3----3--3--3----------------3----3--3--3--|
G|----------------0----0--0--0----------------0----0--0--0--|
D|--------0--2----2----2--2--2--2--0----------2----2--2--2--|            
A|----0h2---------2----2--2--2--------2--0----0----0--0--0--|     
E|-3--------------0----0--0--0------------------------------|


                  Em7                         A7sus4                                        
e|----------------3----3--3--3----------------3----3--3--3--|
B|----------------3----3--3--3----------------3----3--3--3--|
G|----------------0----0--0--0----------------0----0--0--0--|
D|--------0--2----2----2--2--2--2--0----------2----2--2--2--|            
A|----0h2---------2----2--2--2--------2--0----0----0--0--0--|     
E|----------------0----0--0--0------------------------------|


               G
e|-------------3----3----3--3--3----3--3--3--3--3-----------|    
B|-------------3----3----3--3--3----3--3--3--3--3-----------|
G|-------------0----0----0--0--0----0--0--0--0--0-----------|
D|-------------0----0----0--0--0----0--0--0--0--0-----------|         
A|----0h2--0---2----2----2--2--2----2--2--2--2--2-----------|
E|-------------3----3----3--3--3----3--3--3--3--3-----------|


Solo 1: Se lenger ned på siden.
Komp under solo: Samme som intro/mellomspill


VERS 1: 
C                        D/F# 
So, so you think you can tell, 
            Am                    G
Heaven from Hell, blue skies from pain. 
                     D/F#                    C                    
Can you tell a green field from a cold steel rail, 
               Am
a smile from a veil, 
                     G
Do you think you can tell? 
 


VERS 2:
                    C                    
Did they get you to trade 
                D/F#
your heroes for ghosts, 
              Am                   G                            
Hot ashes for trees, hot air for a cool breeze, 
                  D/F#
cold comfort for change, 
               C                           
And did you exchange a walk on part in the 
Am                       G
war for a lead role in a cage? 
 

Solo 2:Se under for solo.
Komp under solo: Samme som intro/mellomspill
 
 

REFRENG: 
C                                D/F#
 How I wish, how I wish you were here. 
           Am                                                    
We're just two lost souls swimming in a fish bowl, 
G               D/F#
 year after year,  Running over the same old ground. 
C                                 Am
 What have we found? The same old fears.
              G
Wish you were here! 
 

Intro/mellomspill


Solo 3: Se under for solo. 
Komp under solo: Samme som intro/mellomspill



SOLO 1:
e|--------------------------------------------------|
H|------3------5---3--------------------------------|
G|-2/4-----------4--------4p2p0---------------------| 
D|------------------------------0----------0-0------|
A|-------------------------------------1/2----------|
E|--------------------------------------------------|



e|-3/5--3-------------------------------------------|
H|-3/5--3----3/5--3--0--3/5--3-0--------------------|
G|-----------2/4--2--0--2/4--2-0-4------------------| 
D|-------------------------------5------------------|
A|--------------------------------------------------|
E|--------------------------------------------------|



e|--------------------------------------------------|
H|-----3---5---b5r-p3---3------------3-5------------|
G|-2/4---4------------4-----2----b4-------b4-2------| 
D|--------------------------------------------------|
A|--------------------------------------------------|
E|--------------------------------------------------|



e|--------------------------------------------------|
H|-----3---5----b5r-p3---3--------------------------|
G|-2/4---4-------------4----2-------b4r--2----------| 
D|--------------------------------------------------|
A|--------------------------------------------------|
E|--------------------------------------------------|




SOLO 2:
e|--------------------------------------------------|
H|-10/12-12---10/12-12------10/12-12---10/12-12-----|
G|--------------------------------------------------| 
D|--------------------------------------------------|
A|--------------------------------------------------|
E|--------------------------------------------------|



e|-10/12---10-10------------------------------------|
H|-----------------------10/12-12-12-12--10/12------|
G|--------------------------------------------------| 
D|--------------------------------------------------|
A|--------------------------------------------------|
E|--------------------------------------------------|



e|--------------------------------------------------|
H|-10/12-----10/12-----12/10------------------------|
G|---------------------------12---------------------| 
D|-------------------------------12-12-12/9-12------|
A|--------------------------------------------------|
E|--------------------------------------------------|



e|----------10-----------10--------------/9-12---9--|
H|----10/12--------10/12--------12/10---------------|
G|9-9---------------------------------12------------| 
D|--------------------------------------------------|
A|--------------------------------------------------|
E|--------------------------------------------------|



e|-9/10-9/10-9/10-9/10-----------10------------10---|
H|-------------------------10/12---------10/12------|
G|--------------------------------------------------| 
D|--------------------------------------------------|
A|--------------------------------------------------|
E|--------------------------------------------------|



e|-------------------------7/9--12-----9------------|
H|----10-12/10----10-----------------------8/10-----|
G|-12----------12----12-----------------------------| 
D|--------------------------------------------------|
A|--------------------------------------------------|
E|--------------------------------------------------|



SOLO 3:
e|--------------------------------------------------|
H|---------------------------------10/12-10---------|
G|-7---7/9--------7--7---7/9----------------12------| 
D|---9----------9------9-----------------------12---|
A|--------------------------------------------------|
E|--------------------------------------------------|



e|--------------------------------------------------|
H|--------------------------------------------------|
G|-9---11/12--------7---7---9-------6/7-------------| 
D|----------------9---9---------9-------------------|
A|--------------------------------------------------|
E|--------------------------------------------------|



e|----------------------------10---12/10------------|
H|-----------------10-----/12------------12---------|
G|-9--12-/9-12---------12---------------------------| 
D|--------------------------------------------------|
A|--------------------------------------------------|
E|--------------------------------------------------|



e|--------------------------------------------------|
H|-10/12--10----------10/12--10/12------------------|
G|-----------12-9-----------------------------------| 
D|----------------12--------------------------------|
A|--------------------------------------------------|
E|--------------------------------------------------|



e|-------10-10-----------10-10-----------10-10------|
H|-10/12-----------10/12-----------10/12-------12/--|
G|--------------------------------------------------| 
D|--------------------------------------------------|
A|--------------------------------------------------|
E|--------------------------------------------------|



e|-7/9--12------9---------10--------12--------10----|
H|------------------10/12-----10/12-----10/12-------|
G|--------------------------------------------------| 
D|--------------------------------------------------|
A|--------------------------------------------------|
E|--------------------------------------------------|
×
 

Om grepsdiagrammet


Vi bruker akkorden D dur som eksempel:

  1. De vertikale strekene viser gitarens 6 strenger. Streken til venstre er gitarens dypeste streng.
  2. De horisontale strekene viser gitarens bånd. I utgangspunktet vises gitarhalsens 5 første bånd, men hvis det er grep som tas høyere opp på gitarhalsen vil det på venstre side av diagrammet stå hvilket bånd man kan orientere seg ut fra.
  3. De svarte prikkene viser hvor vi skal legge fingrene på gitarhalsen, og tallene inni prikkene viser hvilke fingre vi skal bruke for å ta grepet.
  4. Bokstavene D A D F# forteller navnet på notene på strengene som spilles.
  5. Øverst på diagrammet ser vi symbolene 'O' og 'X'.
    • O = strengen skal spilles på.
    • X = strengen skal IKKE spilles på.
  6. Til venstre ser vi tallene 1, 2, 3, 4 og 5. Disse viser hvilket bånd som er utgangspunkt for grepet.

D

1.

2.

3.

4.

5.

  • X
  • X
  • O
  •  
  •  
  •  
  • D
  • A
  • D
  • F#




×

E m7

1.

2.

3.

4.

5.

  • O
  •  
  •  
  • O
  •  
  •  
  • E
  • H
  • E
  • G
  • D
  • G

G

1.

2.

3.

4.

5.

  •  
  •  
  • O
  • O
  •  
  •  
  • G
  • H
  • D
  • G
  • D
  • G

A 7sus4

1.

2.

3.

4.

5.

  • X
  • O
  •  
  • O
  •  
  •  
  • A
  • E
  • G
  • D
  • G

C

1.

2.

3.

4.

5.

  • X
  •  
  •  
  • O
  •  
  • O
  • C
  • E
  • G
  • C
  • E

D

1.

2.

3.

4.

5.

  • X
  • X
  • O
  •  
  •  
  •  
  • D
  • A
  • D
  • F#

D /F#

1.

2.

3.

4.

5.

  •  
  • X
  • O
  •  
  •  
  •  
  • F#
  • D
  • A
  • D
  • F#

A m

1.

2.

3.

4.

5.

  • X
  • O
  •  
  •  
  •  
  • O
  • A
  • E
  • A
  • C
  • E
 

Flere videoleksjoner med Asbjørn Lerheim: