Videoleksjoner

ALL RIGHT NOW 

 Artist/band: Free  |  Lærer: Anders Nærø  |   Rock26.12-17

Loading the player...

 Nivå: 6/10

VIDEOINFO

  • Video: All right now
  • Artist/band: Free
  • Lærer: Anders Nærø
  • Instrument: Elektrisk
  • Nivå: Middels 6/10
  • Lengde: 23:15 min.
  • Sjanger: Rock
  • Opplastet: 26.12.2017

(Denne tjenesten tilbys av onlinegitar.no. Musikken er gjengitt med tillatelse fra TONO. Uautorisert lenking, videreføring eller kopiering er ulovlig.)

×
    • Anders Nærø

    • Funk, pop, blues
    • Anders har studert ved jazzlinja i Trondheim. Han har spesialisert seg innen funksjangeren og er delaktig i flere funk-prosjekter, deriblant Gjerstad Funk- og Fiskarlag. Han har også spilt med artister som Admiral P, Nico D, Sisi og Marianne Pentha.

×

BESIFRING

BACKING

GREP

RELATERT

LÆRER

VIDEO  

All right now - Free


INTRO+VERS:
   A5                   D       A5
e|----------------------------|-----------------------------|
H|----------------------3-----|-----------------------------|
G|*2--------------------2-----|-2---------------------------| 
D|*2--------------------4-----|-2---------------------------|
A|-0----------------0---------|-0------------------------0--|
E|----------------------------|-----------------------------|
   *      *      *      *       *      *      *      *          

   Dadd11        D              A
e|----------------------------|-----------------------------|
H|-3-3--3-3------3-3--3-3-----|-----------------------------|
G|-0-0--0-0------2-2--2-2-----|-2--------------------------*| 
D|-4-4--4-4------4-4--4-4-----|-2--------------------------*|
A|----------------------------|-0---------------------------|
E|----------------------------|-----------------------------|
   *      *      *      *       *      *      *      *       


REFRENG:
e|----------------------------|-----------------------------|
H|----------------------------|-----------------------------|
G|*9------9----------------7--|(7)--------------------------| 
D|*7------7------7---------5--|(5)--------------------------|
A|-------------------9--7-----|-----------------------------|
E|----------------------------|-----------------------------|
   *      *      *      *       *      *      *      *       


e|----------------------------|-----------------------------|
H|----------------------------|-----------------------------|
G|-7------7----------------9--|(9)--------------------------| 
D|-4------4----------------7--|(7)--------------------------|
A|----------------------------|-----------------------------|
E|----------------------------|-----------------------------|
   *      *      *      *       *      *      *      *       


e|----------------------------|-----------------------------|
H|----------------------------|-----------------------------|
G|-9------9----------------7--|(7)--------------------------| 
D|-7------7------7---------5--|(5)--------------------------|
A|-------------------9--7-----|-----------------------------|
E|----------------------------|-----------------------------|
   *      *      *      *       *      *      *      *       


e|----------------------------|-----------------------------|
H|----------------------------|-----------------------------|
G|-7------7-------------------|-9--------------------------*| 
D|-4------4-------------------|-7--------------------------*|
A|----------------------------|-----------------------------|
E|----------------------------|-----------------------------|
   *      *      *      *       *      *      *      *       


KOMP UNDER SOLO:
  G5/D           D              A5
e|----------------------------|-----------------------------|
H|-3-------------3------------|-----------------------------|
G|-0-------------2------------|-2---------------------------|x10 
D|-5-------------4------------|-2---------------------------|
A|-5--------------------------|-0---------------------------|
E|----------------------------|-----------------------------|
   *      *      *      *       *      *      *      *            


SISTE GANG:
  G5/D           D              E5   
e|----------------------------|-----------------------------|
H|-3-------------3------------|-----------------------------|
G|-0-------------2------------|*---------------------------*| 
D|-5-------------4------------|*2--------------------------*|
A|-5--------------------------|-2---------------------------|
E|----------------------------|-0---------------------------|
   *      *      *      *       *      *      *      *       



SOLO
e|----------------------------|-----------------------------|
H|----------------------------|-----------------------------|
G|-0h2------------------------|-2/4----------------2/4------| 
D|----------------------------|-----------------------------|
A|----------------------------|-----------------------------|
E|----------------------------|-----------------------------|
   *      *      *      *       *      *      *      *   


e|----------------------------|-----------------------------|
H|----------------------------|-----------------------------|
G|-4\2------------------------|(2)----------2/4----------4\-| 
D|----------------------------|-----------------------------|
A|----------------------------|-----------------------------|
E|----------------------------|-----------------------------|
   *      *      *      *       *      *      *      *       


e|----------------------------|---------------0-------------|
H|----------------------------|-5-----------5/7----------7\-|
G|-2--------------------------|-----------------------------| 
D|----------------------------|-----------------------------|
A|----------------------------|-----------------------------|
E|----------------------------|-----------------------------|
   *      *      *      *       *      *      *      *       


e|----------------------------|---------------0-------------|
H|-5--------------------------|-5-----------5/7----------7\-|
G|----------------------------|-----------------------------| 
D|----------------------------|-----------------------------|
A|----------------------------|-----------------------------|
E|----------------------------|-----------------------------|
   *      *      *      *       *      *      *      *       


e|----------------------------|------------5----------------|
H|-5--------------------------|-----------------------------|
G|----------------------------|-4----------------b4r--------| 
D|----------------------------|-----------------------------|
A|----------------------------|-----------------------------|
E|----------------------------|-----------------------------|
   *      *      *      *       *      *      *      *         


e|----------------------------|-----------------------------|
H|----------------------------|-----------------------------|
G|-2--------------------------|-14--------------------------| 
D|----------------------------|-----------------------------|
A|----------------------------|-----------------------------|
E|----------------------------|-----------------------------|
   *      *      *      *       *      *      *      *      


e|-------------------------17-|-----17-----17-----17-----17-----17--|
H|----------------------------|17h20--17h20--17h20--17h20--17h20----|
G|(14)------------------------|-------------------------------------|       
D|----------------------------|-------------------------------------|
A|----------------------------|-------------------------------------|
E|----------------------------|-------------------------------------|
   *      *      *      *       *        *        *        *         


e|----------------------------|b20r---------b20r-------p17--|
H|b20------------------b20-17-|-----------------------------|
G|----------------------------|-----------------------------| 
D|----------------------------|-----------------------------|
A|----------------------------|-----------------------------|
E|----------------------------|-----------------------------|
   *      *      *      *       *      *      *      *      


e|-20---------------17--------|-----------------------------|
H|----b20---------------------|b20r-------19---------17-----|
G|----------------------------|-----------------------------| 
D|----------------------------|-----------------------------|
A|----------------------------|-----------------------------|
E|----------------------------|-----------------------------|
   *      *      *      *       *      *      *      *         


e|----------------------------|-----------------------------|
H|17--------------------------|(17)-------------------------|
G|----------------------------|-----------------------------| 
D|----------------------------|-----------------------------|
A|----------------------------|-----------------------------|
E|----------------------------|-----------------------------|
   *      *      *      *       *      *      *      *      
   
   
   
TEKST:

Vers 1:
There she stood in the street
Smiling from her head to her feet
I said hey, what is this
Now baby, maybe she's in need of a kiss
I said hey, what's your name baby
Maybe we can see things the same
Now don't you wait or hesitate
Let's move before they raise the parking rate

Refreng:
All right now baby, it's all right now
All right now baby, it's all right now

Vers 2:
I took her home to my place
Watching every move on her face
She said look, what's your game baby
Are you tryin' to put me in shame
I said slow don't go so fast
Don't you think that love can last
She said love, Lord above
Now you're tryin' to trick me in love

Refreng:
All right now baby, it's all right now
All right now baby, it's all right now

All right now - Free


INTRO+VERS:
   A5                   D       A5
e|----------------------------|-----------------------------|
H|----------------------3-----|-----------------------------|
G|*2--------------------2-----|-2---------------------------| 
D|*2--------------------4-----|-2---------------------------|
A|-0----------------0---------|-0------------------------0--|
E|----------------------------|-----------------------------|
   *      *      *      *       *      *      *      *          

   Dadd11        D              A
e|----------------------------|-----------------------------|
H|-3-3--3-3------3-3--3-3-----|-----------------------------|
G|-0-0--0-0------2-2--2-2-----|-2--------------------------*| 
D|-4-4--4-4------4-4--4-4-----|-2--------------------------*|
A|----------------------------|-0---------------------------|
E|----------------------------|-----------------------------|
   *      *      *      *       *      *      *      *       


REFRENG:
e|----------------------------|-----------------------------|
H|----------------------------|-----------------------------|
G|*9------9----------------7--|(7)--------------------------| 
D|*7------7------7---------5--|(5)--------------------------|
A|-------------------9--7-----|-----------------------------|
E|----------------------------|-----------------------------|
   *      *      *      *       *      *      *      *       


e|----------------------------|-----------------------------|
H|----------------------------|-----------------------------|
G|-7------7----------------9--|(9)--------------------------| 
D|-4------4----------------7--|(7)--------------------------|
A|----------------------------|-----------------------------|
E|----------------------------|-----------------------------|
   *      *      *      *       *      *      *      *       


e|----------------------------|-----------------------------|
H|----------------------------|-----------------------------|
G|-9------9----------------7--|(7)--------------------------| 
D|-7------7------7---------5--|(5)--------------------------|
A|-------------------9--7-----|-----------------------------|
E|----------------------------|-----------------------------|
   *      *      *      *       *      *      *      *       


e|----------------------------|-----------------------------|
H|----------------------------|-----------------------------|
G|-7------7-------------------|-9--------------------------*| 
D|-4------4-------------------|-7--------------------------*|
A|----------------------------|-----------------------------|
E|----------------------------|-----------------------------|
   *      *      *      *       *      *      *      *       


KOMP UNDER SOLO:
  G5/D           D              A5
e|----------------------------|-----------------------------|
H|-3-------------3------------|-----------------------------|
G|-0-------------2------------|-2---------------------------|x10 
D|-5-------------4------------|-2---------------------------|
A|-5--------------------------|-0---------------------------|
E|----------------------------|-----------------------------|
   *      *      *      *       *      *      *      *            


SISTE GANG:
  G5/D           D              E5   
e|----------------------------|-----------------------------|
H|-3-------------3------------|-----------------------------|
G|-0-------------2------------|*---------------------------*| 
D|-5-------------4------------|*2--------------------------*|
A|-5--------------------------|-2---------------------------|
E|----------------------------|-0---------------------------|
   *      *      *      *       *      *      *      *       



SOLO
e|----------------------------|-----------------------------|
H|----------------------------|-----------------------------|
G|-0h2------------------------|-2/4----------------2/4------| 
D|----------------------------|-----------------------------|
A|----------------------------|-----------------------------|
E|----------------------------|-----------------------------|
   *      *      *      *       *      *      *      *   


e|----------------------------|-----------------------------|
H|----------------------------|-----------------------------|
G|-4\2------------------------|(2)----------2/4----------4\-| 
D|----------------------------|-----------------------------|
A|----------------------------|-----------------------------|
E|----------------------------|-----------------------------|
   *      *      *      *       *      *      *      *       


e|----------------------------|---------------0-------------|
H|----------------------------|-5-----------5/7----------7\-|
G|-2--------------------------|-----------------------------| 
D|----------------------------|-----------------------------|
A|----------------------------|-----------------------------|
E|----------------------------|-----------------------------|
   *      *      *      *       *      *      *      *       


e|----------------------------|---------------0-------------|
H|-5--------------------------|-5-----------5/7----------7\-|
G|----------------------------|-----------------------------| 
D|----------------------------|-----------------------------|
A|----------------------------|-----------------------------|
E|----------------------------|-----------------------------|
   *      *      *      *       *      *      *      *       


e|----------------------------|------------5----------------|
H|-5--------------------------|-----------------------------|
G|----------------------------|-4----------------b4r--------| 
D|----------------------------|-----------------------------|
A|----------------------------|-----------------------------|
E|----------------------------|-----------------------------|
   *      *      *      *       *      *      *      *         


e|----------------------------|-----------------------------|
H|----------------------------|-----------------------------|
G|-2--------------------------|-14--------------------------| 
D|----------------------------|-----------------------------|
A|----------------------------|-----------------------------|
E|----------------------------|-----------------------------|
   *      *      *      *       *      *      *      *      


e|-------------------------17-|-----17-----17-----17-----17-----17--|
H|----------------------------|17h20--17h20--17h20--17h20--17h20----|
G|(14)------------------------|-------------------------------------|       
D|----------------------------|-------------------------------------|
A|----------------------------|-------------------------------------|
E|----------------------------|-------------------------------------|
   *      *      *      *       *        *        *        *         


e|----------------------------|b20r---------b20r-------p17--|
H|b20------------------b20-17-|-----------------------------|
G|----------------------------|-----------------------------| 
D|----------------------------|-----------------------------|
A|----------------------------|-----------------------------|
E|----------------------------|-----------------------------|
   *      *      *      *       *      *      *      *      


e|-20---------------17--------|-----------------------------|
H|----b20---------------------|b20r-------19---------17-----|
G|----------------------------|-----------------------------| 
D|----------------------------|-----------------------------|
A|----------------------------|-----------------------------|
E|----------------------------|-----------------------------|
   *      *      *      *       *      *      *      *         


e|----------------------------|-----------------------------|
H|17--------------------------|(17)-------------------------|
G|----------------------------|-----------------------------| 
D|----------------------------|-----------------------------|
A|----------------------------|-----------------------------|
E|----------------------------|-----------------------------|
   *      *      *      *       *      *      *      *      
   
   
   
TEKST:

Vers 1:
There she stood in the street
Smiling from her head to her feet
I said hey, what is this
Now baby, maybe she's in need of a kiss
I said hey, what's your name baby
Maybe we can see things the same
Now don't you wait or hesitate
Let's move before they raise the parking rate

Refreng:
All right now baby, it's all right now
All right now baby, it's all right now

Vers 2:
I took her home to my place
Watching every move on her face
She said look, what's your game baby
Are you tryin' to put me in shame
I said slow don't go so fast
Don't you think that love can last
She said love, Lord above
Now you're tryin' to trick me in love

Refreng:
All right now baby, it's all right now
All right now baby, it's all right now
×
 

Prøv å spille sammen med et backingtrack:

 

Om grepsdiagrammet


Vi bruker akkorden D dur som eksempel:

  1. De vertikale strekene viser gitarens 6 strenger. Streken til venstre er gitarens dypeste streng.
  2. De horisontale strekene viser gitarens bånd. I utgangspunktet vises gitarhalsens 5 første bånd, men hvis det er grep som tas høyere opp på gitarhalsen vil det på venstre side av diagrammet stå hvilket bånd man kan orientere seg ut fra.
  3. De svarte prikkene viser hvor vi skal legge fingrene på gitarhalsen, og tallene inni prikkene viser hvilke fingre vi skal bruke for å ta grepet.
  4. Bokstavene D A D F# forteller navnet på notene på strengene som spilles.
  5. Øverst på diagrammet ser vi symbolene 'O' og 'X'.
    • O = strengen skal spilles på.
    • X = strengen skal IKKE spilles på.
  6. Til venstre ser vi tallene 1, 2, 3, 4 og 5. Disse viser hvilket bånd som er utgangspunkt for grepet.

D

1.

2.

3.

4.

5.

  • X
  • X
  • O
  •  
  •  
  •  
  • D
  • A
  • D
  • F#




×

A 5

1.

2.

3.

4.

5.

  • X
  • O
  •  
  •  
  • X
  • X
  • A
  • E
  • A

D /A

1.

2.

3.

4.

5.

  • X
  • O
  •  
  •  
  •  
  • X
  • A
  • F#
  • A
  • D

D add11

1.

2.

3.

4.

5.

  • X
  • X
  •  
  • O
  •  
  • X
  • F#
  • G
  • D

G 5/D

1.

2.

3.

4.

5.

  • X
  •  
  •  
  • O
  •  
  • X
  • D
  • G
  • G
  • D

E 5

1.

2.

3.

4.

5.

  • O
  •  
  •  
  • X
  • X
  • X
  • E
  • H
  • E
 

Flere videoleksjoner med Anders Nærø:

 
 




 


Copyright 2008-2018 onlinegitar.no